Chord/Tab song: Dry Clothes - Annuals

Chord,Tablature, lyric, sheet, guitar, ukulele song: Dry Clothes - Annuals - ( Dry Clothes by Annuals Be He Me, 2006 Tabbed by Thomas B...)

2 years ago300 Be He Me (2006) Annuals
--
Dry Clothes by Annuals
Be He Me, 2006

Tabbed by Thomas Buhler
If you find any mistakes, or have any questions about this tab, email me at:
t[dot]buhler[dot]007[at]gmail[dot]com

Tuned 1/2 step down (Eb Ab Db Gb Bb eb). All chords and tabs relative to tuning.

Chords:
D - xx0232 (play in OUTRO as x57775)
A - x02220 (play in CHORUS as 577655)
E - 022100
B - x24442
Abmaj7 ? 4776xx
[F#m]D# [-]- [244222]x68886
Db - x46664

VERSE 1:
There's a [D]knapsack [A]rally for the [E]stranger who [D]told
Of a [D]spider, and a [A]purple toad. [B][B][B][B]
[D] The things I [A]heard were [E]wretched, and [D]slurred.
Oh, my [D]ears would be cut [A]off at [B]men[B]tion.[B][B]

CHORUS:
[A] But you - don't [Abmaj7]have to cut - it o[F#m]ff.
(I only feel like living when I feel like I'm dying.)
[F] Just give it some [A]time. Your baby [Abmaj7]boy, he only [F#m]naps. [F][F][F][E]

SOLO: (play solo in dotted rhythm. Notes in brackets are very hard or
impossible to play [with the use of one single guitar]. Use the x?s at the
top of the tab to determine beat rhythm. I apologize for the difficulty of
reading this tab :D.)

|x x x x |x x x x |x x x x |x x x x


eb|----------------|----------------|----------------|----------------------------|
Bb|--------5-------|----------------|--------5-------|----------------------------|
Gb|------6-----6---|------6-7---9---[9/0]--6-----6---|----------------------------|
Db|----7---------7-|6-7-9-----------|----7---------7-|6---4--[4h6p4]2-------------|
Ab|--5-------------|----------------|--5-------------|----------------------------|
Eb|----------------|----------------|----------------|----------------------------|


|x x x x |x x x x |x x x x |x x x x |


eb|----------------|----------------|----------------|----------------|
Bb|--------5-------|----------------|--------5-------|----------------|
Gb[9/0]--6-----6---|------6-7-9-11-9[9/0]--6-----6---|----------------|
Db|----7---------7-|6-7-9-----------|----7---------7-|6---4---6---2---|
Ab|--5-------------|----------------|--5-------------|----------------|
Eb|----------------|----------------|----------------|----------------|


VERSE 2:
[D] So mother [A]bug don't you [E]bite your [D]tongue
Because there's [D]nothing else to [A]do for your [B]son. [B][B][B]
[D] He rose the [A]dead. He's been [E]sharing his [D]bed
With the [D]only one he [A]never [B]lov[B]ed. [B][B]

VERSE 3:
So [D]wh[A]y should you [E]cr[D]y for the
[D]License plate [A]of a [B]col[B]der [B]stat[B]e?
[D] Should you [A]talk of the [E]son on the [D]run,
Your [D]tongue will be ripped [A]out by [B]duck[B]lings. [B][B]

CHORUS:
[A] Oh, you don't [Abmaj7]have to cut it o[F#m]ff.
[F] Just give it some [A]time. Your baby [Abmaj7]boy, he only [F#m]naps. [F][F][F][E]

CHORUS:
[A] I only feel like li[Abmaj7]ving when I feel like I'm [F#m]dying.
[F] Just give it some [A]time. Your baby [Abmaj7]boy, he only [F#m]naps. [F][F][F][E]

VERSE 4: (play only bass note instead of chord)
[D] Well Missy, [A]sure you can [E]look through my [D]drawers.
[D] I've got [A]nothing to [B]hide. (play as chords again)
[D] So, crying [A]soul don't you [E]tally the [D]toll because
[D] Where?s the [A]love in [B]counting?

D D# Db (x1)

OUTRO:
[D]Dry clothes, [D]dry clothes, [D]dry clothes, [D]dry [D#]clo[Db]thes [x6]

End on D

Chords List

Chord: Dry Clothes - Annuals - tab, song lyric, sheet, guitar, ukulele
Maybe you like