Chord/Tab song: Doo Wop in Harlem - Prefab Sprout

Chord,Tablature, lyric, sheet, guitar, ukulele song: Doo Wop in Harlem - Prefab Sprout - ( Doo Wop in Harlem - Prefab Sprout Tabbed by: maguri T...)

2 years ago247 Prefab Sprout
--

---------------------------------------------------------------------------

Doo Wop in Harlem - Prefab Sprout


---------------------------------------------------------------------------

Tabbed by: maguri
Tuning: Standard

Prefab Sprout
Doo Wop in Harlem (1992)
(McAloon)

From: "Jordan ? The Comeback" (1990)



---------------------------------------------------------------------------


INTRO/VERSE/CHORUS

[1+2+3+4+5+6+] [1+2+3+4+5+6+] [1+2+3+4+5+6+] [1+2+3+4+5+6+]


e|------------|----------1-|0-----------|3-----------|
B|1-----------|1-----3---3-|1-----------|3-----------|
G|2-----------|0-----0---0-|0-----------|0-----------|
D|2-----------|0-----0---0-|2-----------|0-----------|
A|0-----------|------------|3-----------|2-----------|
E|------------|3-----3---3-|------------|------------|
---------------------------------------------------------------------------

CHORDS/SPECIAL VOICINGS

Gsus4 [E-A-D-G-B-E]3-x-0-0-1-x
G 3-x-0-0-3-x
G7 3-x-0-0-3-1
G/B x-2-0-0-3-3
G 3-x-0-0-0-x



---------------------------------------------------------------------------


INTRO (repeat and fade in)
| Am | Gsus4 G G7 | C | G/B |

[Am] There is a door[Gsus4] we all walk [G]through[G7]
[C] And on the other side [G/B]I'll meet [Am]you
Reunion [Gsus4]in the a[G]ir [G7]
C G/B [Am]
A cappella meets pure prayer

Am Gsus4 G
Somewhe---re
C[break] G/B
I can't wait to meet you there
Am Gsus4 G
Somewhe---re
C[break] G/B
I can't wait to meet you there

If [Am]there ain't a heaven that [Gsus4]holds you t[G]onight[G7]
They [C]never sang [C/E]doo-wop in [G/B]Harlem
If [Am]there ain't a heaven that [Gsus4]holds you t[G]onight[G7]
They [C]never sang [C/E]doo-wop in [G/B]Harlem

[Am] There is a door,[Gsus4] it may seem [G]locked[G7]
C G/B [Am]
But in a little while, don't be shocked
[Am] Above the noise,[Gsus4] behind the [G]glare[G7]
C G/B [Am]
I know you're listening out there somewhere

Am Gsus4 G
Somewhe---re
C[break] G/B
I can't wait to meet you there
Am Gsus4 G
Somewhe---re
C[break] G/B
I can't wait to meet you there

If [Am]there ain't a heaven that [Gsus4]holds you t[G]onight[G7]
They [C]never sang [C/E]doo-wop in [G/B]Harlem
If [Am]there ain't a heaven that [Gsus4]holds you t[G]onight[G7]
They [C]never sang [C/E]doo-wop in [G/B]Harlem

If [Am]there ain't a heaven that [Gsus4]holds you t[G]onight[G7]
They [C]never sang [C/E]doo-wop in [G/B]Harlem
If [Am]there ain't a heaven that [Gsus4]holds you t[G]onight[G7]
They [C]never sang [C/E]doo-wop in [G/B]Harlem

[repeat and fade]

Chords List

Chord: Doo Wop in Harlem - Prefab Sprout - tab, song lyric, sheet, guitar, ukulele
Maybe you like