Chord/Tab song: Dizzy - Throwing Muses

Chord,Tablature, lyric, sheet, guitar, ukulele song: Dizzy - Throwing Muses - ( by kristin hersh from 'hunkpapa' transcribed by edmond hu...)

--
by kristin hersh
from 'hunkpapa'
transcribed by edmond hum (rlp@interlog.com)



[D7+9] [Dsus4]

e-----0------3------------------------------------------
b-----3------3------------------------------------------
g-----2------2------------------------------------------
d-------------------------------------------------------
a-------------------------------------------------------
e-------------------------------------------------------

( Tab from: http://www.guitartabs.cc/tabs/t/throwing_muses/dizzy_tab.html )


e-------------------------------------------------------
b-------------------------------------------------------
g---3-------------------3-------------------------------
d-----5-3-5---3-5---3-5---5---------------------
a-------------------------------------------------------
e-------------------------------------------------------
--- start ---


[G] [C] [G] [-]

[C]along the Palo Duro [D7+9]canyon
[C]Red River shows so [Dsus4]many eyes
[C]one eye squinting, [Dsus4]shaded from the [C]sun, shoot me[Dsus4][-][D]
[C]black as oil, his [D7+9]hair shone
[C]lily white, his skin glistened
[Dsus4]restless as the [C]reed between his lips blew[Dsus4][-][D]

[C]it's just that [G]mean old Texas [D]sun
[C]it makes me [G]dizzy, dizzy, [C]dizzy in my [D]head

[G] [C] [G] [-]

[C]what day is this? [D7+9] i, quiet, asked the sky
[C]what time is it? [Dsus4] he asked me, sitting up

[C]love that [G]villain on the [D]run F7:F7  C G C D
he's got me spinning 'round and falling on my head

[C]what are you run[D7+9]ning from? i asked the white boy
[C]from the guys who chase me [Dsus4]there; come run
[C]i need your dark skin
to [Am]sit beside me in my car, and [D7+9]light up my cigar
i'll light you


[C]it's just that [G]mean old Texas [D]sun
[C]it makes me [G]dizzy, dizzy, [C]dizzy in my [D]head
[C]love that [G]villain on the [D]run
[C]he's got me [G]spinning 'round and [C]falling G [D]part
^^^^^^^^^^^^^^^^ ^^^^^^^^^^^^^^^


e--1-1-1-0---0-0--- -1-1-1-0---0-0---
B--3-3-3-3---3-3--- -3-3-3-3---3-3---
G--2-2-2-2---2-2--- -0-0-0-0---0-0---
D--0-0-0-0---0-0--- -0-0-0-0---0-0---
A------------------ -----------------
E------------------ -----------------


(D part 4) (G part 4)
You fall off the floor
(D part 4) (G part 4)
I slide your head across the ice
(D part 4) (G part 4)
I throw my head through the window, crash
(D part 4) (G part 4)
Like gods a room full of delicate cutters
(D part 4) (G part 4)
All sitting down the room, as many doors
(D part 4) (G part 4)
All but one of them are closed
(D part 4) (G part 4)
She goes around, opening the doors
(D part 4) (G part 4)
This has another ending, full of innocent children
(D part 4) (G part 4)
One of them are closed
(D part 4) (G part 4)
She goes around, this has another ending
(D part 4) (G part 4) F7tF7  Remember full of delicate cutters
(D part 4) (G end)
Opening the doorspart 4) F7tF7  Remember full of delicate cutters
(D part 4) (G end)
Opening the doors

Chords List

Chord: Dizzy - Throwing Muses - tab, song lyric, sheet, guitar, ukulele
Maybe you like