Chord/Tab song: Bridge to Better Days - Joe Bonamassa

Chord,Tablature, lyric, sheet, guitar, ukulele song: Bridge to Better Days - Joe Bonamassa - ( Joe Bonamassa - Bridge To Better Days I've done this fro...)

--
Joe Bonamassa - Bridge To Better Days

I've done this from a live performance so it might not be accurate to the studio one.

Key of Am

Main Riff/Intro



e------------3-3-3-3-3-3-3---------|
b------------5-5-5-5-5-5-5---------|
g-----------------------------5----|
d----------------------------------|
a----------------------------------|
e----3-5---------------------------|
e-----------2-2-2-2-2-2-2-------14-14-14-14-14-----------|
b-----------1-1-1-1-1-1-1-------13-13-13-13-13-----------|
g-----------2-2-2-2-2-2-2-------14-14-14-14-14-----------|
d------4-------------------------------------------------|
a------4-------------------------------------------------|
e----0-2-------------------0-2---------------------------|



Chorus
[F] [E] [G]

e------------------------------|
b------------------------------|
g---2-----------1------4-------|
d---3-----------2------5-------|
a---3-----------2------5-------|
e---1--------------------------|


Solo Riff



e-------------------------------------------------|
b-------------------------------------------------|
g-------5-----------5--------------------3-4-5----|
d--5-7----7----5-7----7---7-5------------4-5-6----|
a-----------------------------7-5-3-0----4-5-6----|
e----------------------------------------2-3-4----|


Improv Solo in A pentatonic me think

im not quite sure, on the 2nd section of the verse, any suggestions would be appreciated

Chords List

Chord: Bridge to Better Days - Joe Bonamassa - tab, song lyric, sheet, guitar, ukulele
Maybe you like