Chord/Tab song: Bounty Hunter - Keller Williams

Chord,Tablature, lyric, sheet, guitar, ukulele song: Bounty Hunter - Keller Williams - ( Keller Williams - Bounty Hunter [Mike Cross] As played on...)

--
Keller Williams - Bounty Hunter
[Mike Cross]
As played on the album Breathe with The String Cheese Incident

Tuning [top to bottom]- D
[B]
[F#]
[B]
[F#]
harmonics[B]
/ slide
Intro [basically what he does, mess around with it]


--------------------------------------------------------|
--------------------------------------------------------|
-12----------------------------------------------------|
-12---------------0--3--------------0--3--0-----0------|
-12-------0--3-------------0--3---------------3--------|
-12----------------------------------------------------|

[ Tab from: http://www.guitartabs.cc/tabs/k/keller_williams/bounty_hunter_tab.html ]


---------------------|
-3--2--0--3-/-5------|
---------------------|
-3--2--0--3-/-5------|
---------------------|
---------------------|


Verse [again, easy to mess around on these chords if you want]


-0----3---5---0-----0----7-----0----3---5---0-----0----3---5---0---|
-0----3---5---0-----0----7-----0----3---5---0-----0----3---5---0---|
-0----3---5---0-----0----7-----0----3---5---0-----0----3---5---0---|
-0----3---5---0-----0----7-----0----3---5---0-----0----3---5---0---|
-0----3---5---0-----0----7-----0----3---5---0-----0----3---5---0---|
-0----3---5---0-----0----7-----0----3---5---0-----0----3---5---0---|


Chorus [again, just the basic chords, feel free to play around on them]


-3---5---0---7----0---3---5--3---0---|
-3---5---0---7----0---3---5--3---0---|
-3---5---0---7----0---3---5--3---0---|
-3---5---0---7----0---3---5--3---0---|
-3---5---0---7----0---3---5--3---0---|
-3---5---0---7----0---3---5--3---0---|

Chords List

Chord: Bounty Hunter - Keller Williams - tab, song lyric, sheet, guitar, ukulele
Maybe you like