Chord/Tab song: Bodhi Sappy Weekend - Kevin Drew

Chord,Tablature, lyric, sheet, guitar, ukulele song: Bodhi Sappy Weekend - Kevin Drew - ( Artist>Kevin Drew Song>Bodhi Sappy Weekend Album>Spirit I...)

--
Artist>Kevin Drew
Song>Bodhi Sappy Weekend
Album>Spirit If...
tabbed by chris aka the pacific me
www.canaddiction.blogspot.com

main riff:


e----------------------------------------------------------------------|
B----------------------------------------------------3-5-7-5-3---------|
G----------------------------------------------2-4-4-----------4-------|
D----0------0-2-4-0--0-----0-2-4-0-4-0-4-5-4-5-------------------------|
A--------2---------------2---------------------------------------------|
E--3---3-----------3---3-----------------------------------------------|


(continue playing the main riff)

[G]With the pressure kids
and the masterfade[D]
you take a temperature[G]
please don't scratch me out

[G]with out clothes on fire
I guess we both can wait[D]
I built and ark for sur[G]e
please don't scratch out

[G]and the lifelines
live below the waist[D]
it's a capturer[G]
please don't scratch me out



e--------------------------------------------------------------------|
B--------------------------------------------------------------------|
G--7-4-7-4-7-4-7-4-7-9-7-9-7-9-7-9---4---4---4---4---4---4---4---4---|
D--------------------------------------------------------------------|
A--------------------------------------------------------------------|
E--------------------------------------------------------------------|
e---------------------2---2------------------------------------------|
B-------------3---5-----------5--------------------------------------|
G---2---2---2---2---2---2---2---2------------------------------------|
D-0---0---0----------------------------------------------------------|
A--------------------------------------------------------------------|
E--------------------------------------------------------------------|


(main riff again)

[G]you can force a fight
and you can fake a rape[D]
but don't look firs[G]t
please don't [D]scratch me [G]out

[G]and all the men are white
and the women late[D]
this blood isn't yours
please don't scratch me [G]out

[G]This is new life
that we celebrate[D]
inside your mouth[G]
please don't scratch me out



e--------------------------------------------------------------------|
B--------------------------------------------------------------------|
G--7-4-7-4-7-4-7-4-7-9-7-9-7-9-7-9---4---4---4---4---4---4---4---4---|
D--------------------------------------------------------------------|
A--------------------------------------------------------------------|
E--------------------------------------------------------------------|
e--------------------------------------------------------------------|
B---------------3---3---3---3---3------------------------------------|
G---2---2---2----------------------7-4-7-4-7-4-7-4-7-9-7-9-7-9-7-9---|
D-0---0---0---0---0---0---0---0--------------------------------------|
A--------------------------------------------------------------------|
E--------------------------------------------------------------------|
e--------------------------------------------------------------------|
B--------------------------------------------------------------------|
G---4---4---4---4---4---4---4---4----2---2---2---2-------------------|
D----------------------------------0---0---0---0---------------------|
A--------------------------------------------------------------------|
E--------------------------------------------------------------------|
e--------------------------------------------------------------------|
B----------------------------------------------------3-5-7-5-3-------|
G----------------------------------------------2-4-4-----------4-----|
D----0-----0-2-4-0--0-----0-2-4-0-4-0-4-5-4-5------------------------|
A--------2---------------2-------------------------------------------|
E--3---3-----------3---3---------------------------------------------|
e--------------------------------------------------------------------|
B----------------------------------------------------3-5-7-5-3-------|
G----------------------------------------------2-4-4-----------4-----|
D----0-----0-2-4-0--0-----0-2-4-0-4-0-4-5-4-5------------------------|
A--------2---------------2-------------------------------------------|
E--3---3-----------3---3---------------------------------------------|


+a long long outro

Chords List

Chord: Bodhi Sappy Weekend - Kevin Drew - tab, song lyric, sheet, guitar, ukulele
Maybe you like