Chord/Tab song: Best One Yet - Black Flag

Chord,Tablature, lyric, sheet, guitar, ukulele song: Best One Yet - Black Flag - ( intro verse Chorus verse chorus verse chorus ...)

Available on
--

---------------------------------------------------------------------------------


intro


e------------------|
B-----5-5-5h7------|
G--7--7-7-7---7----| x2
D--7--7-7-7---7----|
A--5--5-5-5---5----|
E------------------|


verse


e------------------------------------------------------------------|
B-------------------(10b12r10p8-10b11)-----------------------------|
G------------------------------------------------------------------|
D------------------------------------------------------------------|
A--2-2-2-2--5-5-5-5--10-10-9-9-9--10-10-9-9-9----------------------|
E--0-0-0-0--3-3-3-3--8--8--7-7-7--8--8--7-7-7----------------------|


Chorus


e----------------------|
B----------------------|
G----------------------| x4
D--2-2--5-5-7-7-8-8----|
A--2-2--5-5-7-7-8-8----|
E--0-0--3-3-5-5-6-6----|
e----------------|
B--5-5-5h7-------|
G--7-7-----7~----| x4
D----------------|
A----------------|
E----------------|


verse
chorus
verse
chorus
verse

Outro


e-------------------------------|
B-------------------------------|
G-------------------------------| x4
D--2-2--5-5-7-7-9-9-10-10-10----|
A--2-2--5-5-7-7-9-9-10-10-10----|
E--0-0--3-3-5-5-7-7-8--8--8-----|


e-----
[B-----]
[G-7---]
[D-7---]
[A-5---]
[E-----]

Chords List
Available on

Chord: Best One Yet - Black Flag - tab, song lyric, sheet, guitar, ukulele
Maybe you like