Chord/Tab song: Atomic Bomb - 1017

Chord,Tablature, lyric, sheet, guitar, ukulele song: Atomic Bomb - 1017 - ( ATOMIC BOMB 1017 Tabber: Rodel F. Faras Friendster acc...)

3 months ago30 TenSevenTeen (2007) 1017
--
ATOMIC BOMB
1017


Tabber: Rodel F. Faras
Friendster account: rain_aien0502@yahoo.com
contact #: 09189055868/09196998754
occupation: compositor.../data encoder
company: Absolute Service, Inc.
Date: Oct. 12, 2007

Tuning: Half-step down

Intro: E-B-G#m-A (2x)

Bass:


-------------------------------------------|I
-------------------------------------------|I
-------------------------------------------|I
-------------------------------------------|I
-------------------------------------------|I
--00-0-7-77-44-5-55-00-00-7-77-44-5--------|I


ung 0 string...pwede din... 7 sa A string....okis!
verse:

(timing lang sa strum...)



--0-00000-------22222-------44444-----55555------------|I
--0-00000-------44444-------44444-----55555------------|I
--1-11111-------44444-------44444-----66666------------|I
--2-22222-------44444-------66666-----77777------------|I
--2-22222-------22222-------66666-----77777------------|I
--0-00000-------------------44444-----55555------------|I

Mukha... nagpasabog...bombang...kung....
(dito pasok ang base)

Bass:


-------------------------------------------|I
-------------------------------------------|I
-------------------------------------------|I
-------------------------------------------|I
-------------------------------------------|I
--00-0-7-77-44-5-55-00-00-7-77-44-5--------|I

(ganito pattern...pero mas mabagal this time...timing lang)



--0-00000-------22222-------44444-----55555------------|I
--0-00000-------44444-------44444-----55555------------|I
--1-11111-------44444-------44444-----66666------------|I
--2-22222-------44444-------66666-----77777------------|I
--2-22222-------22222-------66666-----77777------------|I
--0-00000-------------------44444-----55555------------|I

Ano bang... bakit... Ang iyong..siguro'y...

[E]Mukha'y mo'y terrorista, n[B]agpasabog ng bomba
[G#m]Bombang amoy basura k[A]ung nalalanghap mahihilo ka
[E]Ano ba'ng iyong tinatago b[B]akit lagi kang nakayuko
[G#m]Ang iyong mukha'y nakakaduda s[A]iguro'y si Ben Laden ka...
[G#m-A]Osama.[B].....[G#m-A].Aahh.[B]...

refrain:(power chords gamitin nyo para maganda tunog...and ung base na string ang
pindutin...lupiT!)

[G#m-A]Ako'y nagtataka'y tumahimik [G#m-A]ka
[G#m-A]Takot ka bang makilala[G#m-A]
[G#m-A]Na ikaw pala ang may s[G#m-A]ala
G#m A B...
Mga kaibigan mo'y nag-alisan na

Chorus:(visaya)
U[C#m]tot,re[B]sulta sa pan[G#m-A]uhot
maayo p[C#m]ang im[B]u nang gip[G#m-A]ahilot
kay d[C#m]elikado ta ku[B]ng mukalat na
G#m A B....
lisud iginhawa,niya malipong tang duha
E-B-G#m-A...
kay baho ra ba

Bass:


-------------------------------------------|I
-------------------------------------------|I
-------------------------------------------|I
-------------------------------------------|I
-------------------------------------------|I
--00-0-7-77-44-5-55-00-00-7-77-44-5--------|I


[E]Ang lakas ng tama, i[B]kaw ba ang may pakana
[G#m]Di ka ba nakokonsyensya sa u[A]tot mo na sumisingaw
G#m-A B G#m-A B....
Bahaw.....Nilalangaw....

refrain:
[G#m-A]Ako'y nagtataka'y tumahimik [G#m-A]ka
[G#m-A]Takot ka bang makilala[G#m-A]
[G#m-A]Na ikaw pala ang may s[G#m-A]ala
G#m A B...
Mga kaibigan mo'y nag-alisan na

Chorus:
U[C#m]tot,re[B]sulta sa pan[G#m-A]uhot
maayo p[C#m]ang im[B]u nang gip[G#m-A]ahilot
kay d[C#m]elikado ta ku[B]ng mukalat na
G#m A B....
lisud iginhawa,niya malipong tang duha
(adlib)
kay baho ra ba

(pattern sa adlib....chorus chords....C#m-B-G#m-A...)

Chorus:
U[C#m]tot,re[B]sulta sa pan[G#m-A]uhot
maayo p[C#m]ang im[B]u nang gip[G#m-A]ahilot
kay d[C#m]elikado ta ku[B]ng mukalat na
G#m A B....
lisud iginhawa,niya malipong tang duha
kay baho ra b[E-B-G#m-A]a
Baka mapoison [E-B-G#m-A]ka...
E-B-G#m....A....
Amoy paa....

pls rate po!...hi to all olongapeos....hi to all employee of absolute
service...more power 1017!

Chords List

Chord: Atomic Bomb - 1017 - tab, song lyric, sheet, guitar, ukulele
Maybe you like