Chord/Tab song: All as One - Miracle of Sound

Chord,Tablature, lyric, sheet, guitar, ukulele song: All as One - Miracle of Sound - ( [Intro] Clean melody Let Ring E|---------------------...)

--
[Intro]

Clean melody

Let Ring


E|---------------------------------------------------------------------------|
B|------3----3----3-----3----5----5------------------------------------------|
G|----2---------2----------2----2--------------------------------------------|
D|--0------0----0-----0------------------------------------------------------| (2X)
A|---------------------------------------------------------------------------|
D|---------------------------------------------------------------------------|


Main guitar melody

~~~~ ~~~~ ~~~~ V~~~~~~


E|-------6-8-6----------------------------6-8-6------------------------------|
B|----10-------10------10-11-----------10-------10------6-5------------------|
G|--7----------------7-------10\9----7----------------7-----5/7--------------|
D|---------------------------------------------------------------------------|
A|---------------------------------------------------------------------------|
D|---------------------------------------------------------------------------|


Clean intro melody 2 "Stumble from the ashes, Lost enigmas in the dust.."

Let Ring


E|---------------------------------------------------------------------------|
B|------3----3----3-----3----5----5------------------------------------------|
G|----2---------2----------2----2--------------------------------------------|
D|--0------0----0-----0------------------------------------------------------| (4X)
A|---------------------------------------------------------------------------|
D|---------------------------------------------------------------------------|


Clean chords: "Stand side by side, Carry all as one.."

Let Ring


E|---------------------------------------------------------------------------|
B|---------------------------------------------------------------------------|
G|-7---3-------5---7---3-------5---7---3-------5---3------2------------------|
D|-7---3---3---5---7---3---3---5---7---3---3---5---3------2------------------|
A|-5---1---3---3---5---1---3---3---5---1---3---3---1------0------------------|
D|---------3---------------3---------------3---------------------------------|


Distortion kicks in.

"Hold on, Hold on.."


E|---------------------------------------------------------------------------|
B|---------------------------------------------------------------------------|
G|-7-7---------------------5-5-7-7---------------------5-5-------------------|
D|-7-7---8-8---3-3-3-3-5-5-5-5-7-7---8-8---3-3-3-3-5-5-5-5-------------------| (2X)
A|-5-5---8-8---3-3-3-3-3-3-3-3-5-5---8-8---3-3-3-3-3-3-3-3-------------------|
D|-------8-8---3-3-3-3---------------8-8---3-3-3-3---------------------------|

x x x x x x x x x x

[Main Riff]

"Get up and fight.."


E|-------------------------------------------------------------------------|
B|-------------------------------------------------------------------------|
G|-------------------------------------------------------------------------|
D|--------------------------------------5-5-5-3--2-------------------------| (2X)
A|--5-----5-----7-----5-----8-----5-----5-5-5-3--2-------------------------|
D|-----0----0-0----0----0-0----0----0-0-5-5-5-3--2-0-----------------------|


"BREAK!"


E|---------------------------------------------------------------------------|
B|---------------------------------------------------------------------------|
G|---------------------------------------------------------------------------|
D|--7-----------9-----------10----------5-5-5-3--2---------------------------| (2X)
A|--5-----5-----7-----5-----8-----5-----5-5-5-3--2---------------------------|
D|-----0----0-0----0----0-0----0----0-0-5-5-5-3--2-0-------------------------|


"Through the fade or leafy shade Or scorching desert sands"

Fast down picking


E|----------------------------------------------------------------------------------------------------|
B|----------------------------------------------------------------------------------------------------|
G|--------------------------3----3--------5----5-------------------------------3---3-------5-5-5-5-5-5|
D|----------------------------------------------------------------------------------------------------|(2X)
A|---5---5-------5---5---1-1--1-1--1-1/3-3--3-3-3-3---5---5--------5----5---1-1-1-1-1-1/3-3-----------|
D|0-0-0-0-0-0-0-0-0-0-0-0--------------------------0-0-0-0-0-0-0-0---0-0-0-0--------------------------|

xx xx xxxx xx xxxx xx xx xx xx xxxx xx xxxx xx xxxx xx xx xx

"Maker's breath or wind of death, It matters not to me"

~~~ ~~~~ ~~~~ ~~~ ~~~~ ~~~~ ~~~~~ ~~~~~


E|-------------------------------------------------------------------------------------|
B|-------------------------------------------------------------------------------2-----|
G|-------------------5----------------5/7---7-7-7-7-7-7-7-7-----------5----2-----2-----|
D|-5-5-5---5-5--3----5----5-5-5---5-5-5/7---7-7-7-7-7-7-7-7-5----3----5----2-----2-----| (2X)
A|-5-5-5---5-5--3----3----5-5-5---5-5-3/5---5-5-5-5-5-5-5-5-5----3----3----0-----0-----|
D|-5-5-5---5-5--3---------5-5-5---5-5-----------------------5----3---------------------|

x x x x x

[Chorus]

"Stand side by side "Stand side by side
Carry all as one.." We won't come undone.."

Third time goes like this


E|---------------------------| E|----------------------------------------------|
B|---------------------------| B|----------------------------------------------|
G|-7--7---------------5--5---| G|-7--7---------------5--5---3--33-3-3----2-----|
D|-7--7-7-8--\-3--3-5-5--5---| (2X) D|-7--7-7-8--\-3--3-5-5--5---3--33-3-3----2-----|
A|-5--5-7-8--\-3--3-5-3--3---| A|-5--5-7-8--\-3--3-5-3--3---1--11-1-1----0-----|
D|------7-8--\-3--3-5--------| D|------7-8--\-3--3-5---------------------------|


"Hold on.."
(SLIDE)


E|------------------------------------------------------------------------------------|
B|------------------------------------------------------------------------------------|
G|------------------3-----------5-5-5-5---------3-----------5-5-5-5-------------------|
D|-12-\-------0---3-3---3-3-3-3-5-5-5-5---0---3-3---3-3-3-3-5-5-5-5-------------------|
A|-12-\-----0-0---1-1---3-3-3-3-3-3-3-3-0-0---1-1---3-3-3-3-3-3-3-3-------------------|
D|-12-\-----0-0---------3-3-3-3---------0-0---------3-3-3-3---------------------------|


[Solo]

First part


E|------------------------------------------------------------------------------------|
B|------------------------------------------------------------------------------------|
G|------------------------------------------------------------------------------------|
D|-0-3-0-3-0-5-0-5-0-3-0-3-0-7-0-7-0-3-0-3-0-5-0-5-777-5------------------------------|
A|------------------------------------------------------------------------------------|
D|------------------------------------------------------------------------------------|


Second part


E|-5-6-5-3-5-3-1-3-1-0-1-0------5-6-5-3-5-3-5/8-----------------------------------------------|
B|-------------------------3--------------------------8---8-----------------------------------|
G|------------------------------------------------------------9-9-9-7-7-7-5-5-7---------------|
D|-------------------------------------------------7b8--------9-9-9-7-7-7-5-5-7---------------|
A|--------------------------------------------------------------------------------------------|
D|--------------------------------------------------------------------------------------------|


Third part


E|-------5-7--------5-7-5-7-8---8-8-8-8-8-7-7-7-7-7-7-5-5-5-5-5-5-3-3-3-3-3-3-2---------------|
B|-5-7-8------5-7-8---------------------------------------------------------------------------|
G|--------------------------------------------------------------------------------------------|
D|--------------------------------------------------------------------------------------------|
A|--------------------------------------------------------------------------------------------|
D|--------------------------------------------------------------------------------------------|


Fourth Part (Same as the intro)


E|-------6-8-6----------------------------6-8-6------------------------------|
B|----10-------10------10-11-----------10-------10------6-5------------------|
G|--7----------------7-------10\9----7----------------7-----5/7--------------|
D|---------------------------------------------------------------------------|
A|---------------------------------------------------------------------------|
D|---------------------------------------------------------------------------|


Fifth and last part (Pretty much the same but two notes higher)


E|-------8-10-8----------------------------8-10-8----------------------------|
B|----12-------12------12-13-----------12--------12------8-7-----------------|
G|--9----------------9-------12\10----9----------------9-----7/9---\---------|
D|---------------------------------------------------------------------------|
A|---------------------------------------------------------------------------|
D|---------------------------------------------------------------------------|


[Chorus]

"Stand side by side "Stand side by side
Carry all as one.." We won't come undone.."



E|---------------------------| E|-------------------------------------------------|
B|---------------------------| B|-------------------------------------------------|
G|-7--7---------------5--5---| G|-7--7---------------5--5---3--33-3-3----2--22-2--|
D|-7--7-7-8--\-3--3-5-5--5---| (2X) D|-7--7-7-8--\-3--3-5-5--5---3--33-3-3----2--22-2--|
A|-5--5-7-8--\-3--3-5-3--3---| A|-5--5-7-8--\-3--3-5-3--3---1--11-1-1----0--00-0--|
D|------7-8--\-3--3-5--------| D|------7-8--\-3--3-5------------------------------|


"Fight for your values "Through the age of the dragon
And fight for your friends.." Through chaos and hate.."



E|---------------------------| E|-------------------------------------------------|
B|---------------------------| B|-------------------------------------------------|
G|-7--7---------------5--5---| G|-7--7---------------5--5---3--33-3-3----2--------|
D|-7--7-7-8--\-3--3-5-5--5---| (2X) D|-7--7-7-8--\-3--3-5-5--5---3--33-3-3----2--------|
A|-5--5-7-8--\-3--3-5-3--3---| A|-5--5-7-8--\-3--3-5-3--3---1--11-1-1----0--------|
D|------7-8--\-3--3-5--------| D|------7-8--\-3--3-5------------------------------|


"Hold on.." "Hold on.."


E|----------------------------------------------------------------------------|
B|----------------------------------------------------------------------------|
G|----------3-----------5-5-5-5---------3-----------5-5-5-5-------------------|
D|----0---3-3---3-3-3-3-5-5-5-5---0---3-3---3-3-3-3-5-5-5-5-------------------|
A|--0-0---1-1---3-3-3-3-3-3-3-3-0-0---1-1---3-3-3-3-3-3-3-3-------------------|
D|--0-0---------3-3-3-3---------0-0---------3-3-3-3---------------------------|


[Outro]
"Hope.."


E|------------------------------------------------------------------------------|
B|------------------------------------------------------------------------------|
G|------------------------------------------------------------------------------|
D|--------------------------------------5-5-5-3--2------------------------------| (2X)
A|--5-----5-----7-----5-----8-----5-----5-5-5-3--2------------------------------|
D|-----0----0-0----0----0-0----0----0-0-5-5-5-3--2-0----------------------------|
E|------------------------------------------------------------------------------|
B|------------------------------------------------------------------------------|
G|------------------------------------------------------------------------------|
D|--7-----------9-----------10----------5-5-5-3--2------------------------------| (2X)
A|--5-----5-----7-----5-----8-----5-----5-5-5-3--2------------------------------|
D|-----0----0-0----0----0-0----0----0-0-5-5-5-3--2-0----------------------------|


Last chords go like this


E|-------------------------|
B|-------------------------|
G|-------------------------|
D|----5-5-5-3--2---0-0-----|
A|----5-5-5-3--2---0-0-----|
D|----5-5-5-3--2-0-0-0-----|

Chords List

Chord: All as One - Miracle of Sound - tab, song lyric, sheet, guitar, ukulele
Maybe you like