Chord/Tab song: 7 Deadly Sins - The Libertines

Chord,Tablature, lyric, sheet, guitar, ukulele song: 7 Deadly Sins - The Libertines - ( The section where there's E7-F7 I play like: Intro cho...)

--
The section where there's E7-F7 I play like:


e|--7-8----|
B|--9-10---|
G|--7-8----|
D|--9-10---|
A|--7-8----|
E|---------|


Intro chords (which are the song for the most part):
F G7 C7 x2
F G7 C7 Bb - C7 x2
[F] [A] [Dm] [Bb] [-] [Bbm] [F] [-] [E] [-] [Bb]
[F] [G7] [C7]

|-1-8-8-8-8-----|
|-1-10101010----|
|-2-8-8-8-8-----|
|-3-10101010----|
|-3-8 8 8 8-----|
|-1-------------|


[F]The seven deadly sin[G7]s
[C7]We find them [Bb]all [-]and [C7]burst
[F]Where degenerate kings [G7]pushy beggars
[C7]Fallen ladies of [Bb]letters and [C7]verse
[F]Pride, lust, gluttony, greed, [A]sloth, wrath and envy
[Dm]It's all in a hard days [Bb]work for [Bbm]me
An[F]d [-]I,[E] [Bb] I pa[F]y no mind[E7][-][F7][C][-][B][-][Bb]
[F]And I pay no min[G7]d
[C7]To a name that you will [Bb]employ [C7]me
[F]I despise all their kin[G7]d
[C7]Jump search and d[Bb]estroy [C7]me
[F]Hand me my gun
My friend [A]we'll have some fun
[Dm]We'll shoot down the spies in the tr[Bb]ees
And [Bbm]kick up the leaves
[F] [-] I[E]n the mornin' br[Bb]eeze
[F]Pay no mind[E7][-][F7][C][-][B][-][Bb]

Bridge chords:


Cm - F - Bb-A-Bb Cm F Bb-A-Bb B Cm
e|--3----1---1-1-0-0-1----8---8---8----6-5-6---7-8--------|
B|--4----1---3-3-2-2-3----8---8---10---6-5-6---7-8--------|
G|--5----2---3-3-2-2-3----8---8---10---7-6-7---8-8--------|
D|--5----3---3-3-2-2-3--------10--10---8-7-8---9-10-------|
A|--3----3---1-1-0-0-1--------10--8----8-7-8---9-10-------|
E|-------1--------------------8--------6-5-6---7-8--------|


[F]And the old iron [G7]bells
[C7]Still ring in the [Bb]old [C7]machine
[F]And will chain me to [G7]hell
[C7]Poison your [Bb]soul as it [C7]seems to re[F]bel
Its obscene stay [A]home and get lean
[Dm]Live in your mind but don't l[Bb]ive out your [Bbm]dream
[F]No[-] o[E]h n[Bb]o pay[F] no mi[E7]nd [-] [F7] [C] [-] [B] [-][Bb]

Chords List

Chord: 7 Deadly Sins - The Libertines - tab, song lyric, sheet, guitar, ukulele
Maybe you like