Hợp âm - tab: Winona Forever - Creeper - cảm âm - lời bài hát

Cảm âm, tablature, hợp âm, tabs guitar, ukulele, lời bài hát: Winona Forever - Creeper - ( [Intro] D#|-0-------------|---------------|-0---------...)

5 months ago449 Creeper
--
[Intro]



D#|-0-------------|---------------|-0-------------|------------------------|
A#|-0-------------|---------------|-0-------------|------------------------|
F#|-1-------------|---------------|-0-------------|------------------------|
C#|-2-------------|---------------|-2-------------|-2---------2--2---------|
G#|-2-------------|---------------|-2-------------|-2---------2--2---------|
D#|-0-------------|---------------|-0-------------|-0-0-0-0-0-0--0---------|


[G#m] [F#] [D#m] [E]

D#|---------------------|-------------------|-------------------|------------------|
A#|---------------------|-------------------|-------------------|------------------|
F#|-2--2----4--5----4-5-|-7--5--4--5--4-----|---------7TP-------|-5TP-----4TP------|
C#|---------------------|----------------7--|-5-----------------|------------------|
G#|---------------------|-------------------|-------------------|------------------|
D#|---------------------|-------------------|-------------------|------------------|


[G#m] [F#] [D#m] [E]

D#|---------------------|-------------------|-------------------|------------------|
A#|---------------------|-------------------|---------6---------|-5-------3--------|
F#|-2--2----4--5----4-5-|-7--5--4--5--4-----|---------7---------|-5-------4--------|
C#|---------------------|----------------7--|-5-----------------|------------------|
G#|---------------------|-------------------|-------------------|------------------|
D#|---------------------|-------------------|-------------------|------------------|


Chords marked above are strummed by a second guitar


[Verse]

Strum chords in triplets

[G#m]In the alley, your[F#] eyes like valleys,
[D#m]Like gallows that hang from the n[E]ight.
[G#m]I wrote you letters,[F#] have never felt better,
[D#m]I bury myself in the[E] void.


[Prechorus 2]
It Goe[E]s... Yeah I've been drin[B]king...
And you know[E]... That I've been thi[B]nking of you so,[E]
I know that I[B]'m a wreck all the ti[F#]me...


[Chorus]
But maybe I could be you[B5]r boy.[F#5][E5][F#5]
And do all the thi[B5]ngs that you want [F#5]to,
You could be my Win[B5]ona,[F#5][E5][F#5]
And I could get your [B5]name in a heart ta[F#5]ttoo, on my a[E5]rm.

These late nights are doing me harm.


[Verse 2]

this verse adds a syncopated mute note rhythm instead of strummed chords


D#|-------------------------|------------------------|-------------------------|
A#|-------------------------|------------------------|-------------------------|
F#|-5--------------5--7--5--|-4----------------------|-4--------------4--2--4--|
C#|-7--7-7-7-7-7-7-7--7--7--|-5--5-5-5-5-5-5-5-5-5-5-|-5--5-5-5-5-5-5-5--3--5--|
G#|-------------------------|------------------------|-------------------------|
D#|-------------------------|------------------------|-------------------------|

PM



D#|----------------------------|
A#|----------------------------|
F#|-5--------------------------|
C#|-7--7-7-7-7-7-7-7-7-7-7-7-7-|
G#|----------------------------|
D#|----------------------------|

PM

"As you're leaving, I'm barely dreaming, Keeping it all to myself."
"The blood is empty, my head's full of concrete, and I'd rather be someplace else"


[Prechorus 2]
It Goe[E]s... Yeah I've been drin[B]king...
And you know[E]... That I've been thi[B]nking of you so,[E]
I know that I[B]'m a wreck all the ti[F#]me...


[Chorus 2]
But maybe I could be you[B5]r boy.[F#5][E5][F#5]
And do all the thi[B5]ngs that you want [F#5]to,
You could be my Win[B5]ona,[F#5][E5][F#5]
And I could get your [B5]name in a heart ta[F#5]ttoo, on my a[E5]rm.

These late nights are doing me harm.


[Bridge]


D#|---------------------------------|----------------------------------|
A#|-1---1---1---1---3---3---0---0---|-1---1---1---1---0---0---0---0----|
F#|---2---2---2---2---2---2---2---2-|---0---0---0---0---0---0---0---0--| play 4x
C#|---------------------------------|----------------------------------|
G#|---------------------------------|----------------------------------|
D#|---------------------------------|----------------------------------|


"And it's breaking me to see you so happy, I just want the worst for you."
"So selfish and typical of me to sail and sink with you."



D#|--------------------------------|---------------------------------|
A#|--------------------------------|---------------------------------|
F#|--------------------------------|---------------------------------| play 3x
C#|-7----7-7------5---5---5-5------|-2----2-2-------3---3---3-3------|
G#|-7----7-7------5---5---5-5------|-2----2-2-------3---3---3-3------|
D#|-5----5-5------3---3---3-3------|-0----0-0-------1---1---1-1------|


"And it's breaking me to see you so happy, I just want the worst for you."
"So selfish and typical of me to sail and sink with you."
"And it's breaking me to see you so happy, I just want the worst for you."

strum sixteenths for these chords


D#|--------------------------------|-----------------------------|----------------------------|
A#|--------------------------------|-----------------------------|----------------------------|
F#|--------------------------------|-----------------------------|----------------------------|
C#|-7----7-7------5---5---5-5------|-2---------------------------|-2--------------------------|
G#|-7----7-7------5---5---5-5------|-2---------------------------|-2--------------------------|
D#|-5----5-5------3---3---3-3------|-0---------------------------|-0--------------------------|

"So selfish and typical of me to sail and sink with you. sail and sink with you"


[Final Chorus]
But maybe I could be you[B5]r boy.[F#5][E5][F#5]
And do all the thi[B5]ngs that you want [F#5]to,
You could be my Win[B5]ona,[F#5][E5][F#5]
And I could get your [B5]name in a heart ta[F#5]ttoo, on my a[E5]rm.

But maybe I could be you[B5]r boy.[F#5][E5][F#5]
And do all the thi[B5]ngs that you want [F#5]to,
You could be my Win[B5]ona,[F#5][E5][F#5]
And I could get your [B5]name in a heart ta[F#5]ttoo, on my a[E5]rm.

These late nights are doing me harm.


[Ending Chord]


D#|---------------------------------------------------------------------------|
A#|---------------------------------------------------------------------------|
F#|---------------------------------------------------------------------------|
C#|-3-------------------------------------------------------------------------|
G#|-3-------------------------------------------------------------------------|
D#|-1-------------------------------------------------------------------------|

Danh sách hợp âm

Hợp âm: Winona Forever - Creeper - cảm âm, tab guitar, ukulele - lời bài hát
Có thể bạn thích