Chord/Tab song: Walk With Me in Hell - Lamb of God

Chord,Tablature, lyric, sheet, guitar, ukulele song: Walk With Me in Hell - Lamb of God - ( Sacrament Transcribed by Seth "Shadows" Sanders Gtr I ...)

--
Sacrament

Transcribed by Seth "Shadows" Sanders

Gtr I (D A D G B E) - 'Rhythm Guitar I'
Gtr II (D A D G B E) - 'Rhythm Guitar II'
Gtr III (D A D G B E) - 'Rhythm Guitar III'
Gtr IV (D A D G B E) - 'Rhythm Guitar IV'
Gtr V (D A D G B E) - 'Lead Guitar'
Gtr VI (D A D G B E) - 'String Ensemble'

Intro Chorus
Q111
[4/4] Gtrs I, II
S S S S S S S S S S S S S S S S


||--------------------------------------------------|
||o-------------------------------------------------|
||-----14p13-------------14p13-------------14p13----|
||--12-------12-14h15-12-------12-14h15-12-------14-|
||o-------------------------------------------------|
||--------------------------------------------------|

|
| Gtrs IV, VI
| W


||--------------------------------------------------|
||o--3----------------------------------------------|
||---2----------------------------------------------|
||---0----------------------------------------------|
||o--0----------------------------------------------|
||---0----------------------------------------------|

|
| Gtr III
| S S S S S S S S S S S S S S S S


||--------------------------------------------------|
||o-------------------------------------------------|
||---9--9--9--9--9--9--9--9--9--9--9--9--9--9--9--9-|
||---x--x--x--x--x--x--x--x--x--x--x--x--x--x--x--x-|
||o--7--7--7--7--7--7--7--7--7--7--7--7--7--7--7--7-|
||--------------------------------------------------|


S S S S S S S S S S S S S S S S


|--------------------------------------------------|
|--------------------------------------------------|
|-----14p13-------------14p13-------------14p13----|
|-12--------12-14h15-12-------12-14h15-12-------14-|
|--------------------------------------------------|
|--------------------------------------------------|

|
| +W


|--------------------------------------------------|
|-(3)----------------------------------------------|
|-(2)----------------------------------------------|
|-(0)----------------------------------------------|
|-(0)----------------------------------------------|
|-(0)----------------------------------------------|

|
| S S S S S S S S S S S S S S S S


|--------------------------------------------------|
|--------------------------------------------------|
|-10--10-10-10-10-10-10-10-10-10-10-10-10-10-10-10-|
|--x---x--x--x--x--x--x--x--x--x--x--x--x--x--x--x-|
|--8---8--8--8--8--8--8--8--8--8--8--8--8--8--8--8-|
|--------------------------------------------------|


S S S S S S S S S S S S S S S S


|--------------------------------------------------|
|--------------------------------------------------|
|-----14p13-------------14p13-------------14p13----|
|-12--------12-14h15-12-------12-14h15-12-------14-|
|--------------------------------------------------|
|--------------------------------------------------|

|
| +W


|--------------------------------------------------|
|-(3)----------------------------------------------|
|-(2)----------------------------------------------|
|-(0)----------------------------------------------|
|-(0)----------------------------------------------|
|-(0)----------------------------------------------|

|
| S S S S S S S S S S S S S S S S


|--------------------------------------------------|
|--------------------------------------------------|
|--9---9--9--9--9--9--9--9--9--9--9--9--9--9--9--9-|
|--x---x--x--x--x--x--x--x--x--x--x--x--x--x--x--x-|
|--7---7--7--7--7--7--7--7--7--7--7--7--7--7--7--7-|
|--------------------------------------------------|


S S S S S S S S S S S S S S S S


|--------------------------------------------------|
|--------------------------------------------------|
|-----14p13-------------14p13----------------12----|
|-12--------12-14h15-12-------12-14h15----14----14-|
|--------------------------------------15----------|
|--------------------------------------------------|

|
| +H. Q


|--------------------------------------------------|
|-(3)----------------------------------------------|
|-(2)-----------------------------------5----------|
|-(0)-----------------------------------5----------|
|-(0)-----------------------------------3----------|
|-(0)-----------------------------------0----------|

|
| S S S S S S S S S S S S S S S S


|--------------------------------------------------|
|--------------------------------------------------|
|-12--12-12-12-12-12-12-12-12-12-12-12-12-12-12-12-|
|--x---x--x--x--x--x--x--x--x--x--x--x--x--x--x--x-|
|-10--10-10-10-10-10-10-10-10-10-10-10-10-10-10-10-|
|--------------------------------------------------|


PM PM
S S S S S S S S S S S S S S S S


|-------------------------------------------------|
|-------------------------------------------------|
|----15p14-------------15p14-------------15p14----|
|----------12-14h15----------12-14h15-12-------15-|
|-13----------------13----------------------------|
|-------------------------------------------------|

|
| W


|-------------------------------------------------|
|-------------------------------------------------|
|--3----------------------------------------------|
|--x----------------------------------------------|
|--1----------------------------------------------|
|-------------------------------------------------|

|
| S S S S S S S S S S S S S S S S


|-------------------------------------------------|
|-------------------------------------------------|
|-10-10-10-10-10-10-10-10-10-10-10-10-10-10-10-10-|
|--x--x--x--x--x--x--x--x--x--x--x--x--x--x--x--x-|
|--8--8--8--8--8--8--8--8--8--8--8--8--8--8--8--8-|
|-------------------------------------------------|


PM PM
S S S S S S S S S S S S S S S S


|-------------------------------------------------|
|-------------------------------------------------|
|----15p14-------------15p14-------------15p14----|
|----------12-14h15----------12-14h15-12-------15-|
|-13----------------13----------------------------|
|-------------------------------------------------|

|
| E q E q q


|-------------------------------------------------|
|-------------------------------------------------|
|--3-----3-----------3-----3-----------3----------|
|--3-----3-----------3-----3-----------3----------|
|--1-----1-----------1-----1-----------1----------|
|-------------------------------------------------|

|
| S S S S S S S S S S S S S S S S


|-------------------------------------------------|
|-------------------------------------------------|
|-------------------------------------------------|
|-------------------------------------------------|
|--8--8--8--8--8--8--8--8--8--8--8--8--8--8--8--8-|
|--8--8--8--8--8--8--8--8--8--8--8--8--8--8--8--8-|


PM PM
S S S S S S S S S S S S S S S S


|-------------------------------------------------|
|-------------------------------------------------|
|----15p14-------------15p14-------------15p14----|
|----------12-14h15----------12-14h15-12-------15-|
|-13----------------13----------------------------|
|-------------------------------------------------|

|
| W


|-------------------------------------------------|
|-------------------------------------------------|
|--3----------------------------------------------|
|--x----------------------------------------------|
|--1----------------------------------------------|
|-------------------------------------------------|

|
| S S S S S S S S S S S S S S S S


|-------------------------------------------------|
|-------------------------------------------------|
|-10-10-10-10-10-10-10-10-10-10-10-10-10-10-10-10-|
|--x--x--x--x--x--x--x--x--x--x--x--x--x--x--x--x-|
|--8--8--8--8--8--8--8--8--8--8--8--8--8--8--8--8-|
|-------------------------------------------------|


PM PM
S S S S S S S S S S S S S S S S


|--------------------------------------------------||
|-------------------------------------------------o||
|----15p14-------------15p14-------------------14--||
|----------12-14h15----------12-14h15----14h15-----||
|-13----------------13----------------15----------o||
|--------------------------------------------------||

|
| E q E q Q


|--------------------------------------------------||
|-------------------------------------------------o||
|--3-----3-----------3-----3-----------5-----------||
|--3-----3-----------3-----3-----------5-----------||
|--1-----1-----------1-----1-----------3----------o||
|--------------------------------------------------||

|
| S S S S S S S S S S S S S S S S


|--------------------------------------------------||
|-------------------------------------------------o||
|--------------------------------------------------||
|--------------------------------------------------||
|--8--8--8--8--8--8--8--8--8--8--8--8--8--8--8--8-o||
|--8--8--8--8--8--8--8--8--8--8--8--8--7--7--7--7--||


Pre Verse
Gtrs I, II
PM PM PM PM
S S S S S S S S S S S S S S S S


|--------------------------------------------------|
|--------------------------------------------------|
|--------------------------------------------------|
|--------------------------------------------------|
|--------------------------------------------------|
|--0---10h12---0-10h12-0-10h12-13p12p10-0-10h12h13-|

|
| Gtr IV
| +E H..


|--------------------------------------------------|
|--------------------------------------------------|
|-(5)\---------------------------------------------|
|-(5)\---------------------------------------------|
|-(3)\---------------------------------------------|
|--------------------------------------------------|


PM PM PM PM
S S S S S S S S S S S S S S S S


|---------------------------------------------|
|---------------------------------------------|
|---------------------------------------------|
|---------------------------------------------|
|---------------------------------------------|
|-0-10h12-0-10h12-0-10h12-13p12p10-0-10h12h13-|

|
| W


|---------------------------------------------|
|---------------------------------------------|
|---------------------------------------------|
|---------------------------------------------|
|---------------------------------------------|
|---------------------------------------------|


Gtrs I, II
PM PM PM PM
S S S S S S S S S S S S S S S S


|---------------------------------------------|
|---------------------------------------------|
|---------------------------------------------|
|---------------------------------------------|
|---------------------------------------------|
|-0-10h12-0-10h12-0-10h12-13p12p10-0-10h12h13-|


PM ~
S S S S S S S S S S S S S S S S


|------------------------------------|
|------------------------------------|
|------------------------------------|
|------------------------------------|
|------------------------------------|
|-0-12p10p0-10p8p0-8p7p0-7p5p0-5s3-2-|


PM PM PM PM
S S S S S S S S S S S S S S S S


|---------------------------------------------|
|---------------------------------------------|
|---------------------------------------------|
|---------------------------------------------|
|---------------------------------------------|
|-0-10h12-0-10h12-0-10h12-13p12p10-0-10h12h13-|


PM PM PM PM
S S S S S S S S S S S S S S S S


|---------------------------------------------|
|---------------------------------------------|
|---------------------------------------------|
|---------------------------------------------|
|---------------------------------------------|
|-0-10h12-0-10h12-0-10h12-13p12p10-0-10h12h13-|


PM PM PM PM
S S S S S S S S S S S S S S S S


|---------------------------------------------|
|---------------------------------------------|
|---------------------------------------------|
|---------------------------------------------|
|---------------------------------------------|
|-0-10h12-0-10h12-0-10h12-13p12p10-0-10h12h13-|


PM ~
S S S S S S S S S S S S S S S S


|------------------------------------||
|------------------------------------||
|------------------------------------||
|------------------------------------||
|------------------------------------||
|-0-12p10p0-10p8p0-8p7p0-7p5p0-5s3-2-||


Verse
Gtrs I, II


PM------------| PM------------|

|-3-|
S S S S S S S S S S S S S S S S S S S S S S S S S S S S S S S S S


|-----------------------------------|-------------------------------------|
|-----------------------------------|-------------------------------------|
|-----------------------------------|-------------------------------------|
|-----------------------------------|-------------------------------------|
|-----------------------------------|-------------------------------------|
|-0-0-0-0-0-0-0-0-3s1p0-0-0-0-0-0-0-|-0-12p10p0-10p8p0-8p7p0-7p5p0-5-3-1--|
PM------------| PM------------|

|-3-|
S S S S S S S S S S S S S S S S S S S S S S S S S S S S S S S S S


|-----------------------------------|--------------------------------------|
|-----------------------------------|--------------------------------------|
|-----------------------------------|--------------------------------------|
|-----------------------------------|--------------------------------------|
|-----------------------------------|--------------------------------------|
|-0-0-0-0-0-0-0-0-0h1p0-0-0-0-0-0-0-|-0-12p10p0-10p8p0-8p7p0-7p5p0-5-3-1S|
PM--------------| PM----|

|-3-| |-3-|
S S S S S S S S S S S S S S S S S S S S S S S S S S S S S S S S S S


|-------------------------------------|-------------------------------------|
|-------------------------------------|-------------------------------------|
|-------------------------------------|-------------------------------------|
|-------------------------------------|-------------------------------------|
|-------------------------------------|-------------------------------------|
|-6-6-6-6-6-6-6-6-6-7p6-7p6-6-6-6-6-6s|12-12p10p0-10p8p0-8p7p0-7p5p0-5-3-1-|


Gtr I


PM--------------| PM--------| PM|

|-3-|
S S S S S S S S S S S S S S S S S e H. S S


|-----------------------------------|------------------------------------|
|-----------------------------------|------------------------------------|
|-----------------------------------|------------------------------------|
|-----------------------------------|------------------------------------|
|-----------------------------------|-0----------------------------------|
|-0-0-0-0-0-0-0-0-0-8p0-0-0-0-0-0-0-|-0------------------------------0-0-|

|
| Gtr II


| PM--------------| PM------------| PM PM|

| |-3-|
| S S S S S S S S S S S S S S S S S S S S S S S T T S S S S S S S S S


|-----------------------------------|------------------------------------|
|-----------------------------------|------------------------------------|
|-----------------------------------|------------------------------------|
|-----------------------------------|----------5p4-----5h7h8-7p5-7p5-4h5-|
|-----------------------------------|---6p5------------------------------|
|-0-0-0-0-0-0-0-0-0-1p0-0-0-0-0-0-0-|-0------0-----0-0-------------------|


Gtrs I, II


PM--------------| PM------------| PM PM|

|-3-|
S S S S S S S S S S S S S S S S S S S S S S S T T S S S S S S S S S


|-----------------------------------|-----------------------------------|
|-----------------------------------|-----------------------------------|
|-----------------------------------|-----------------------------------|
|-----------------------------------|---------5p4-----5h7h8-7p5-7p5-4h5-|
|-------------------1p0-------------|---6p5-----------------------------|
|-0-0-0-0-0-0-0-0-0-1p0-0-0-0-0-0-0-|-0-----0-----0-0-------------------|
PM--------------| PM------------| PM PM|

|-3-|
S S S S S S S S S S S S S S S S S S S S S S S T T S S S S S S S S S


|-----------------------------------|-----------------------------------|
|-----------------------------------|-----------------------------------|
|-----------------------------------|---------------------------7p5---5-|
|-----------------------------------|---------5p4-----5h7h8-7p5-----7---|
|-------------------1p0-------------|---6p5-----------------------------|
|-0-0-0-0-0-0-0-0-0-1p0-0-0-0-0-0-0-|-0-----0-----0-0-------------------|
PM--------------| PM----|

|-3-| |-3-|
S S S S S S S S S S S S S S S S S S S S S S S S S S S S S S S S S S


|---------------------------------------|-------------------------------------||
|---------------------------------------|-------------------------------------||
|---------------------------------------|-------------------------------------||
|---------------------------------------|-------------------------------------||
|---------------------------------------|-------------------------------------||
|-8-8-8-8-8-8-8-8-8-10p8-10p8-8-8-8-8-8s|12-12p10p8-10p8p7-8p7p5-7p5p3-5-3-1-||

|
| Gtr VI
| <
| W W


|---------------------------------------|-------------------------------------||
|---------------------------------------|--3----------------------------------||
|---------------------------------------|--2----------------------------------||
|---------------------------------------|--0----------------------------------||
|---------------------------------------|--0----------------------------------||
|---------------------------------------|-------------------------------------||


Chorus
[4/4] Gtrs I, II
S S S S S S S S S S S S S S S S


|-------------------------------------------------|
|-------------------------------------------------|
|----14p13-------------14p13-------------14p13----|
|-12-------12-14h15-12-------12-14h15-12-------14-|
|-------------------------------------------------|
|-------------------------------------------------|

|
| Gtrs IV, VI
| W


|-------------------------------------------------|
|--3----------------------------------------------|
|--2----------------------------------------------|
|--0----------------------------------------------|
|--0----------------------------------------------|
|--0----------------------------------------------|

|
| Gtr III
| S S S S S S S S S S S S S S S S


|-------------------------------------------------|
|-------------------------------------------------|
|--9--9--9--9--9--9--9--9--9--9--9--9--9--9--9--9-|
|--x--x--x--x--x--x--x--x--x--x--x--x--x--x--x--x-|
|--7--7--7--7--7--7--7--7--7--7--7--7--7--7--7--7-|
|-------------------------------------------------|


S S S S S S S S S S S S S S S S


|---------------------------------------------------|
|---------------------------------------------------|
|-----14p13-------------14p13-------------14p13-----|
|-12--------12-14h15-12-------12-14h15-12-------14--|
|---------------------------------------------------|
|---------------------------------------------------|

|
| +W


|---------------------------------------------------|
|-(3)-----------------------------------------------|
|-(2)-----------------------------------------------|
|-(0)-----------------------------------------------|
|-(0)-----------------------------------------------|
|-(0)-----------------------------------------------|

|
| S S S S S S S S S S S S S S S S


|---------------------------------------------------|
|---------------------------------------------------|
|-10--10-10-10-10-10-10-10-10-10-10-10-10-10-10-10--|
|--x---x--x--x--x--x--x--x--x--x--x--x--x--x--x--x--|
|--8---8--8--8--8--8--8--8--8--8--8--8--8--8--8--8--|
|---------------------------------------------------|


S S S S S S S S S S S S S S S S


|-------------------------------------------------|
|-------------------------------------------------|
|----14p13-------------14p13-------------14p13----|
|-12-------12-14h15-12-------12-14h15-12-------14-|
|-------------------------------------------------|
|-------------------------------------------------|

|
| W


|-------------------------------------------------|
|--3----------------------------------------------|
|--2----------------------------------------------|
|--0----------------------------------------------|
|--0----------------------------------------------|
|--0----------------------------------------------|

|
| S S S S S S S S S S S S S S S S


|-------------------------------------------------|
|-------------------------------------------------|
|--9--9--9--9--9--9--9--9--9--9--9--9--9--9--9--9-|
|--x--x--x--x--x--x--x--x--x--x--x--x--x--x--x--x-|
|--7--7--7--7--7--7--7--7--7--7--7--7--7--7--7--7-|
|-------------------------------------------------|


S S S S S S S S S S S S S S S S


|--------------------------------------------------|
|--------------------------------------------------|
|-----14p13-------------14p13----------------12----|
|-12--------12-14h15-12-------12-14h15----14----14-|
|--------------------------------------15----------|
|--------------------------------------------------|

|
| +H. Q


|--------------------------------------------------|
|-(3)----------------------------------------------|
|-(2)-----------------------------------5----------|
|-(0)-----------------------------------5----------|
|-(0)-----------------------------------3----------|
|-(0)-----------------------------------0----------|

|
| S S S S S S S S S S S S S S S S


|--------------------------------------------------|
|--------------------------------------------------|
|-12--12-12-12-12-12-12-12-12-12-12-12-12-12-12-12-|
|--x---x--x--x--x--x--x--x--x--x--x--x--x--x--x--x-|
|-10--10-10-10-10-10-10-10-10-10-10-10-10-10-10-10-|
|--------------------------------------------------|


PM PM
S S S S S S S S S S S S S S S S


|-------------------------------------------------|
|-------------------------------------------------|
|----15p14-------------15p14-------------15p14----|
|----------12-14h15----------12-14h15-12-------15-|
|-13----------------13----------------------------|
|-------------------------------------------------|

|
| W


|-------------------------------------------------|
|-------------------------------------------------|
|--3----------------------------------------------|
|--x----------------------------------------------|
|--1----------------------------------------------|
|-------------------------------------------------|

|
| S S S S S S S S S S S S S S S S


|-------------------------------------------------|
|-------------------------------------------------|
|-10-10-10-10-10-10-10-10-10-10-10-10-10-10-10-10-|
|--x--x--x--x--x--x--x--x--x--x--x--x--x--x--x--x-|
|--8--8--8--8--8--8--8--8--8--8--8--8--8--8--8--8-|
|-------------------------------------------------|


PM PM
S S S S S S S S S S S S S S S S


|-------------------------------------------------|
|-------------------------------------------------|
|----15p14-------------15p14-------------15p14----|
|----------12-14h15----------12-14h15-12-------15-|
|-13----------------13----------------------------|
|-------------------------------------------------|

|
| E q E q q


|-------------------------------------------------|
|-------------------------------------------------|
|--3-----3-----------3-----3-----------3----------|
|--3-----3-----------3-----3-----------3----------|
|--1-----1-----------1-----1-----------1----------|
|-------------------------------------------------|

|
| S S S S S S S S S S S S S S S S


|-------------------------------------------------|
|-------------------------------------------------|
|-------------------------------------------------|
|-------------------------------------------------|
|--8--8--8--8--8--8--8--8--8--8--8--8--8--8--8--8-|
|--8--8--8--8--8--8--8--8--8--8--8--8--8--8--8--8-|


PM PM
S S S S S S S S S S S S S S S S


|------------------------------------------------------||
|------------------------------------------------------||
|------15p14-------------15p14-------------15p14-------||
|------------12-14h15----------12-14h15-12---------15\-||
|-13------------------13-------------------------------||
|------------------------------------------------------||

|
| H.. +E


|------------------------------------------------------||
|------------------------------------------------------||
|------------------------------------------------------||
|--8------------------------------------------(8)\-----||
|--8------------------------------------------(8)\-----||
|--8------------------------------------------(8)\-----||

|
| W


|------------------------------------------------------||
|------------------------------------------------------||
|-10---------------------------------------------------||
|--x---------------------------------------------------||
|--8---------------------------------------------------||
|------------------------------------------------------||


Verse
Gtr II
PM
S S S S S S S S S S S S S S S S


|---------------------------------|
|---------------------------------|
|---------------------------------|
|---------5p4---5h7h8-7p5-7p5-4h5-|
|-x-6s5p0-------------------------|
|-x-----------0-------------------|


Gtrs I, II


PM----| PM----------| PM--| PM PM

S S S S S S S S S S S S S S S S S S S S S S S S S S S S S S S S


|---------------------------------|---------------------------------|
|---------------------------------|---------------------------------|
|---------------------------------|---------------------------------|
|---------------------------------|---------5p4---5h7h8-7p5-7p5-4h5-|
|---------1---------------1-------|---6p5---------------------------|
|-0-0-0-0-1-0-0-0-0-0-0-0-1-0-0-0-|-0-----0-----0-------------------|
PM----| PM----------| PM--| PM PM

S S S S S S S S S S S S S S S S S S S S S S S S S S S S S S S S


|---------------------------------|---------------------------------|
|---------------------------------|---------------------------------|
|---------------------------------|-------------------------7p5---5-|
|---------------------------------|---------5p4---5h7h8-7p5-----7---|
|---------1---------------1-------|---6p5---------------------------|
|-0-0-0-0-1-0-0-0-0-0-0-0-1-0-0-0-|-0-----0-----0-------------------|
PM--------------| PM----|

|-3-| |-3-|
S S S S S S S S S S S S S S S S S S S S S S S S S S S S S S S S S S


|---------------------------------------|-------------------------------------|
|---------------------------------------|-------------------------------------|
|---------------------------------------|-------------------------------------|
|---------------------------------------|-------------------------------------|
|---------------------------------------|-------------------------------------|
|-8-8-8-8-8-8-8-8-8-10p8-10p8-8-8-8-8-8s|12-12p10p8-10p8p7-8p7p5-7p5p3-5-3-1-|


Gtr I


PM----| PM--------------------| PM--|
|-----8:3-----|

S S S S S S S S S S S S S S S S S S S S S


|-------------------------------------------|
|-------------------------------------------|
|-------------------------------------------|
|-------------------------------------------|
|---------1-------------------------1-------|
|-0-0-0-0-1-0-0-0-0-0-0-0-0-0-0-0-0-1-0-0-0-|

|
| Gtr II


| PM----| PM--------------------| PM--|
| |-----8:3-----|

| S S S S S S S S S S S S S S S S S S S S S


|-------------------------------------------|
|-------------------------------------------|
|-------------------------------------------|
|-------------------------------------------|
|---------1-------------------------1-------|
|-0-0-0-0-1-0-0-0-0-0-0-0-0-0-0-0-0-1-0-0-0-|


PM PM
S S S S S S S S S S S S S S S S


|---------------------------------------|
|---------------------------------------|
|---------------------------------------|
|----------5p4---5h7h8--7p5--7p5-4h5--|
|----6p5--------------------------------|
|-0------0-----0------------------------|

|
| PM PM
| S S S S S S S S S S S S S S S S


|---------------------------------------|
|---------------------------------------|
|---------------------------------------|
|----------8p7---8h10h12-10p8-10p8-7h8--|
|---10p9--------------------------------|
|-0------0-----0------------------------|
PM PM--------| PM| PM PM

|--5:2--|
e S e S S S S S S S E S S e. S S S S S S S S S S S S S S S S


|------------------------------|---------------------------------------|
|------------------------------|---------------------------------------|
|------------------------------|---------------------------------------|
|------------------------------|----------5p4---5h7h8--7p5--7p5-4h5--|
|-0-x-0-x-----------1s0-----0--|----6p5--------------------------------|
|-0-x-0-x-0-0-0-0-0-1s0-0-0-0--|-0------0-----0------------------------|

|


| PM PM--------| PM| PM PM

| |--5:2--|
| e S e S S S S S S S E S S e. S S S S S S S S S S S S S S S S


|------------------------------|---------------------------------------|
|------------------------------|---------------------------------------|
|------------------------------|---------------------------------------|
|------------------------------|----------8p7---8h10h12-10p8-10p8-7h8--|
|-0-x-0-x-----------1s0-----0--|---10p9--------------------------------|
|-0-x-0-x-0-0-0-0-0-1s0-0-0-0--|-0------0-----0------------------------|
PM PM--------| PM| PM PM

|--5:2--|
e S e S S S S S S S E S S e. S S S S S S S S S S S S S S S S


|------------------------------|-----------------------------------------|
|------------------------------|-----------------------------------------|
|------------------------------|-----------------------------7p5----5----|
|------------------------------|----------5p4---5h7h8--7p5-----7-------|
|-0-x-0-x-----------1s0-----0--|----6p5----------------------------------|
|-0-x-0-x-0-0-0-0-0-1s0-0-0-0--|-0------0-----0--------------------------|

|


| PM PM--------| PM| PM PM

| |--5:2--|
| e S e S S S S S S S E S S e. S S S S S S S S S S S S S S S S


|------------------------------|-----------------------------------------|
|------------------------------|-----------------------------------------|
|------------------------------|-----------------------------------------|
|------------------------------|----------8p7---8h10h12-10p8-8p7---[7]\--|
|-0-x-0-x-----------1s0-----0--|---10p9--------------------------8-------|
|-0-x-0-x-0-0-0-0-0-1s0-0-0-0--|-0------0-----0--------------------------|


Gtrs I, II


PM--------------| PM----|

|-3-| |-3-|
S S S S S S S S S S S S S S S S S S


|---------------------------------------|
|---------------------------------------|
|---------------------------------------|
|---------------------------------------|
|---------------------------------------|
|-8-8-8-8-8-8-8-8-8-10p8-10p8-8-8-8-8-8s|

|
| Gtr III
| W


|---------------------------------------|
|---------------------------------------|
|---------------------------------------|
|---------------------------------------|
|---------------------------------------|
|---------------------------------------|


S S S S S S S S S S S S S S S S


|--------------------------------------||
|--------------------------------------||
|--------------------------------------||
|--------------------------------------||
|--------------------------------------||
|-12--12p10p8-10p8p7-8p7p5-7p5p3-5-3-1-||

|
| <
| W


|--------------------------------------||
|--------------------------------------||
|-----------------------------------||
|--------------------------------------||
|-----------------------------------||
|--------------------------------------||


Chorus
[4/4] Gtrs I, II
S S S S S S S S S S S S S S S S


|-------------------------------------------------|
|-------------------------------------------------|
|----14p13-------------14p13-------------14p13----|
|-12-------12-14h15-12-------12-14h15-12-------14-|
|-------------------------------------------------|
|-------------------------------------------------|

|
| Gtr III
| W


|-------------------------------------------------|
|--3----------------------------------------------|
|--2----------------------------------------------|
|--0----------------------------------------------|
|--0----------------------------------------------|
|--0----------------------------------------------|


S S S S S S S S S S S S S S S S


|---------------------------------------------------|
|---------------------------------------------------|
|-----14p13-------------14p13-------------14p13-----|
|-12--------12-14h15-12-------12-14h15-12-------14--|
|---------------------------------------------------|
|---------------------------------------------------|

|
| +W


|---------------------------------------------------|
|-(3)-----------------------------------------------|
|-(2)-----------------------------------------------|
|-(0)-----------------------------------------------|
|-(0)-----------------------------------------------|
|-(0)-----------------------------------------------|


S S S S S S S S S S S S S S S S


|-------------------------------------------------|
|-------------------------------------------------|
|----14p13-------------14p13-------------14p13----|
|-12-------12-14h15-12-------12-14h15-12-------14-|
|-------------------------------------------------|
|-------------------------------------------------|

|
| W


|-------------------------------------------------|
|--3----------------------------------------------|
|--2----------------------------------------------|
|--0----------------------------------------------|
|--0----------------------------------------------|
|--0----------------------------------------------|


S S S S S S S S S S S S S S S S


|--------------------------------------------------|
|--------------------------------------------------|
|-----14p13-------------14p13----------------12----|
|-12--------12-14h15-12-------12-14h15----14----14-|
|--------------------------------------15----------|
|--------------------------------------------------|

|
| +H. Q


|--------------------------------------------------|
|-(3)----------------------------------------------|
|-(2)-----------------------------------5----------|
|-(0)-----------------------------------5----------|
|-(0)-----------------------------------3----------|
|-(0)----------------------------------------------|


PM PM
S S S S S S S S S S S S S S S S


|-------------------------------------------------|
|-------------------------------------------------|
|----15p14-------------15p14-------------15p14----|
|----------12-14h15----------12-14h15-12-------15-|
|-13----------------13----------------------------|
|-------------------------------------------------|

|
| W


|-------------------------------------------------|
|-------------------------------------------------|
|-------------------------------------------------|
|--8----------------------------------------------|
|--8----------------------------------------------|
|--8----------------------------------------------|


PM PM
S S S S S S S S S S S S S S S S


|-------------------------------------------------|
|-------------------------------------------------|
|----15p14-------------15p14-------------15p14----|
|----------12-14h15----------12-14h15-12-------15-|
|-13----------------13----------------------------|
|-------------------------------------------------|

|
| W


|-------------------------------------------------|
|-------------------------------------------------|
|-------------------------------------------------|
|--8----------------------------------------------|
|--8----------------------------------------------|
|--8----------------------------------------------|


PM PM
S S S S S S S S S S S S S S S S W


|-----------------------------------------------------|------||
|-----------------------------------------------------|------||
|------15p14-------------15p14-------------15p14------|------||
|------------12-14h15----------12-14h15-12--------15\-|------||
|-13------------------13------------------------------|------||
|-----------------------------------------------------|------||

|
| H.. +E w


|-----------------------------------------------------|------||
|-----------------------------------------------------|------||
|-----------------------------------------------------|------||
|--8------------------------------------------(8)s|x----||
|--8------------------------------------------(8)s|x----||
|--8------------------------------------------(8)s|x----||


Breakdown
Gtr IV


PM--------------| PM--------------|

S e E S S S e E e E S e E S S S e E e E


||----------------------|---------------------|
||o---------------------|---------------------|
||----------------------|---------------------|
||----------------------|---------------------|
||o---------------------|---------------------|
||--0-0---0-0-0-0---0---|-0-0---0-0-0-0---0---|
PM--------------| PM| PM

S e E S S S e E e E S e E S S S S S S S S S S S


|---------------------|---------------------------------||
|---------------------|--------------------------------o||
|---------------------|---------------------------------||
|---------------------|---------------------------------||
|---------------------|--------------------------------o||
|-0-0---0-0-0-0---0---|-0-0---1p0-0-3p1-4p3p1-4p3p1-----||


Pre-Solo
Gtr II
E S S S Q.. S S S S H S S S S Q


||---------------------------------------------|------------------------------------------|
||o--------------------------------------------|------------------------------------------|
||---------------------------------------------|------------------------------------------|
||---------15p14-------------------------------|---------------------------14p13----------|
||o-----12----------------------------10-13p12-|----------------------x-11----------------|
||----------------------------------x----------|------------------------------------------|

|
| Gtr I
| H S S S S Q E S S S Q.. S S S S


||---------------------------------------------|------------------------------------------|
||o--------------------------------------------|------------------------------------------|
||---------------------------------------------|------------------------------------------|
||----------------------------14p13------------|--------15p14---------------------------8-|
||o----------------------x-11------------------|-----12----------------------------10p9---|
||---------------------------------------------|---------------------------------x--------|

|
| Gtr IV


| PM------------------------------| PM------------------------------|

| S e E S S S e E e E S e E S S S e E e E


||---------------------------------------------|------------------------------------------|
||o--------------------------------------------|------------------------------------------|
||---------------------------------------------|------------------------------------------|
||---------------------------------------------|------------------------------------------|
||o--------------------------------------------|------------------------------------------|
||--0-0----------0---0-0-0----------0----------|-0-0----------0---0-0-0----------0--------|


E S S S Q.. S S S S W


|--------------------------------------------|-----------------------------------------||
|--------------------------------------------|----------------------------------------o||
|--------------------------------------------|-----------------------------------------||
|--------15p14-------------------------------|-----------------------------------------||
|-----12----------------------------10-13p12-|----------------------------------------o||
|---------------------------------x----------|-----------------------------------------||

|
| H S S S S Q E S S E H E


|--------------------------------------------|-----------------------------------------||
|--------------------------------------------|----------------------------------------o||
|--------------------------------------------|-----------------------------------------||
|---------------------------14p13------------|--------15p14\---------------------------||
|----------------------x-11------------------|-----12---------------------------------o||
|--------------------------------------------|-----------------------------------------||

|


| PM------------------------------| PM| PM

| S e E S S S e E e E S e E S S S S S S S S S S S


|--------------------------------------------|-----------------------------------------||
|--------------------------------------------|----------------------------------------o||
|--------------------------------------------|-----------------------------------------||
|--------------------------------------------|-----------------------------------------||
|--------------------------------------------|----------------------------------------o||
|-0-0----------0---0-0-0----------0----------|-0-0-----------1p0-0-3p1-4p3p1-4p3p1-----||


PM
E S S S Q S S S S S S S E S S S Q S S S S S S S


||-------------------------------------------|------------------------------------------|
||o------------------------------------------|------------------------------------------|
||-------------------------------------------|------------------------------------------|
||---------15p14------------14p13------------|--------15p14------------14p13----------8-|
||o-----12---------------11---------10-13p12-|-----12---------------11---------10p9----|
||--------------------------------x----------|-------------------------------x----------|

|
| PM
| E S S S Q S S S S S S S E S S S Q S S S S S S S


||-------------------------------------------|------------------------------------------|
||o------------------------------------------|------------------------------------------|
||-------------------------------------------|------------------------------------------|
||---------20p19------------19p18------------|--------20p19------------19p18------------|
||o-----17---------------16---------15-18p17-|-----17---------------16---------15-14h18-|
||--------------------------------x----------|-------------------------------x----------|

|


| PM----------------------------| PM----------------------------|

| S e E S S S e E e E S e E S S S e E e E


||-------------------------------------------|------------------------------------------|
||o------------------------------------------|------------------------------------------|
||-------------------------------------------|------------------------------------------|
||-------------------------------------------|------------------------------------------|
||o------------------------------------------|------------------------------------------|
||--0-0----------0-0-0-0----------0----------|-0-0----------0-0-0-0----------0----------|


E S S S Q S S S S S S S E S S S H E.


|------------------------------------------|----------------------------------------||
|------------------------------------------|---------------------------------------o||
|------------------------------------------|----------------------------------------||
|--------15p14------------14p13------------|--------15p14---------------------------||
|-----12---------------11---------10-13p12-|-----12--------------------------------o||
|-------------------------------x----------|----------------------------------------||

|
| E S S S Q S S S S S S S E S S S H E.


|------------------------------------------|----------------------------------------||
|------------------------------------------|---------------------------------------o||
|------------------------------------------|----------------------------------------||
|--------20p19------------19p18------------|--------20p19---------------------------||
|-----17---------------16---------15-18p17-|-----17--------------------------------o||
|-------------------------------x----------|----------------------------------------||

|


| PM----------------------------| PM| PM

| S e E S S S e E e E S e E S S S S S S S S S S S


|------------------------------------------|----------------------------------------||
|------------------------------------------|---------------------------------------o||
|------------------------------------------|----------------------------------------||
|------------------------------------------|----------------------------------------||
|------------------------------------------|---------------------------------------o||

Chords List

Chord: Walk With Me in Hell - Lamb of God - tab, song lyric, sheet, guitar, ukulele
Maybe you like