Hợp âm - tab: Pandemic Assault - Zonaria - cảm âm - lời bài hát

Cảm âm, tablature, hợp âm, tabs guitar, ukulele, lời bài hát: Pandemic Assault - Zonaria - ( PANDEMIC ASSAULT - Zonaria Tabbed by: Samee Email: xc...)

--

-----------------------------------------------------------------------------

PANDEMIC ASSAULT - Zonaria


-----------------------------------------------------------------------------

Tabbed by: Samee
Email: xcrunner64@yahoo.com

Tuning: B Standard (for 6-string guitars): B E A D F# B



|---------------------------------|
|---------------------------------|
|----------Pause between----------|
|----------0:00 and 0:01----------|
|---------------------------------|
|---------------------------------|
|-----------------------------------------------------------------|
|-----------------------------------------------------------------|
|-----------------------------------------------------------------|
|---------4---9-----------5-------6---------------4-------9-------|
|-2-------2---7-----------3-------4---------------2-------7-------|
|-0---------------------------------------------------------------|
|-----------------------------------------------------------------|
|-----------------------------------------------------------------|
|-----------------------------------------------------------------|
|---------4---9-----------5-------6---------------4-------9-------|
|-2-------2---7-----------3-------4---------------2-------7-------|
|-0---------------------------------------------------------------|
|-----------------------------------------------------------------|
|-----------------------------------------------------------------|
|-----------------------------------------------------------------|
|---------4---9-----------5-------6---------------4-------9-------|
|-2-------2---7-----------3-------4---------------2-------7-------|
|-0---------------------------------------------------------------|
|-----------------------------------------------------------------|
|-----------------------------------------------------------------|
|-----------------------------------------------------------------|
|---------4---9-----------5-------6---------------4-------9-------|
|-2-------2---7-----------3-------4---------------2-------7-------|
|-0---------------------------------------------------------------|
|------------------------------------------------------------------|
|------------------------------------------------------------------|
|-------------------------------7~~--------------------------------|
|---------------------------------------------------9x--7x---------|
|-9---------------------7-------------------------7---------10-9---|
|-7-------0-------0-0-0-----0-0-----0-0-0-0-0-0-0------------------|

[+]


|------------------------------------------------------------------|
|------------------------------------------------------------------|
|-------------------------------7~~--------------------------------|
|---------------------------------------------------9x--7x---------|
|-9---------------------7-------------------------7---------10-9---|
|-7-------0-------0-0-0-----0-0-----0-0-0-0-0-0-0------------------|

[+]


|--------------------------------------------------------------|
|--------------------------------------------------------------|
|--------------------------------------------------------------|
|-----7--------------------------------------------------------|
|-8-----7---------------------8---5-7--------------------------|
|-------------0000000011110000------------00005555444400000000-|
|--------------------------------------------------------------|
|--------------------------------------------------------------|
|--------------------------------------------------------------|
|-----7--------------------------------------------------------|
|-8-----7---------------------8---5-7--------------------------|
|-------------0000000011110000------------00005555444400000000-|
|-----------------------------------------------------------------|
|-----------------------------------------------------------------|
|-----------------------------------------------------------------|
|-----------------------------------------------------7-----------|
|---------------7-------------------------------7-----------------|
|-5x--5x--5-8-----------0-0-0-0-0-5x--5x--5-8---------------------|
|-----------------------------------------------------------------|
|-----------------------------------------------------------------|
|-----------------------------------------------------------------|
|-----------------------------------------------------7-----------|
|---------------7-------------------------------7-----------------|
|-5x--5x--5-8-----------0-0-0-0-0-5x--5x--5-8---------------------|
|-----------------------------------------------------------------|
|-----------------------------------------------------------------|
|-----------------------------------------------------------------|
|-2-------(2)-------(2)-------(2)-------(2)-----------------------|
|-0-------(0)-------(0)-------(0)-------(0)-------3-------2-------|
|-------------------------------------------------1-------0-------|
|-----------------------------------------------------------------|
|-----------------------------------------------------------------|
|-----------------------------------------------------------------|
|-2-------(2)-------(2)-------(2)-------(2)-----------------------|
|-0-------(0)-------(0)-------(0)-------(0)-------3-------2-------|
|-------------------------------------------------1-------0-------|
|-----------------------------------------------------------------|
|-----------------------------------------------------------------|
|-----------------------------------------------------------------|
|-2-------(2)-------(2)-------(2)-------(2)-----------------------|
|-0-------(0)-------(0)-------(0)-------(0)-------3-------2-------|
|-------------------------------------------------1-------0-------|
|-----------------------------------------------------------------|
|-----------------------------------------------------------------|
|-----------------------------------------------------------------|
|-2-------(2)-------(2)-------(2)-------(2)-----------------------|
|-0-------(0)-------(0)-------(0)-------(0)-------3-------2-------|
|-------------------------------------------------1-------0-------|
|--------------------------------------------------------------|
|--------------------------------------------------------------|
|--------------------------------------------------------------|
|-----7--------------------------------------------------------|
|-8-----7---------------------8---5-7--------------------------|
|-------------0000000011110000------------00005555444400000000-|
|--------------------------------------------------------------|
|--------------------------------------------------------------|
|--------------------------------------------------------------|
|-----7--------------------------------------------------------|
|-8-----7---------------------8---5-7--------------------------|
|-------------0000000011110000------------00005555444400000000-|
|-----------------------------------------------------------------|
|-----------------------------------------------------------------|
|-----------------------------------------------------------------|
|-----------------------------------------------------7-----------|
|---------------7-------------------------------7-----------------|
|-5x--5x--5-8-----------0-0-0-0-0-5x--5x--5-8---------------------|
|-----------------------------------------------------------------|
|-----------------------------------------------------------------|
|-----------------------------------------------------------------|
|-----------------------------------------------------7-----------|
|---------------7-------------------------------7-----------------|
|-5x--5x--5-8-----------0-0-0-0-0-5x--5x--5-8---------------------|
|-----------------------------------------------------------------|
|-----------------------------------------------------------------|
|-----------------------------------------------------------------|
|-2-------(2)-------(2)-------(2)-------(2)-----------------------|
|-0-------(0)-------(0)-------(0)-------(0)-------3-------2-------|
|-------------------------------------------------1-------0-------|
|-----------------------------------------------------------------|
|-----------------------------------------------------------------|
|-----------------------------------------------------------------|
|-2-------(2)-------(2)-------(2)-------(2)-----------------------|
|-0-------(0)-------(0)-------(0)-------(0)-------3-------2-------|
|-------------------------------------------------1-------0-------|
|-----------------------------------------------------------------|
|-----------------------------------------------------------------|
|-----------------------------------------------------------------|
|-2-------(2)-------(2)-------(2)-------(2)-----------------------|
|-0-------(0)-------(0)-------(0)-------(0)-------3-------2-------|
|-------------------------------------------------1-------0-------|
|-----------------------------------------------------------------|
|-----------------------------------------------------------------|
|-----------------------------------------------------------------|
|-2-------(2)-------(2)-------(2)-------(2)-----------------------|
|-0-------(0)-------(0)-------(0)-------(0)-------3-------2-------|
|-------------------------------------------------1-------0-------|
|------------------------------------------------------------------|
|------------------------------------------------------------------|
|-------------------------------7~~--------------------------------|
|---------------------------------------------------9x--7x---------|
|-9---------------------7-------------------------7---------10-9---|
|-7-------0-------0-0-0-----0-0-----0-0-0-0-0-0-0------------------|

[+]


|------------------------------------------------------------------|
|------------------------------------------------------------------|
|-------------------------------7~~--------------------------------|
|---------------------------------------------------9x--7x---------|
|-9---------------------7-------------------------7---------10-9---|
|-7-------0-------0-0-0-----0-0-----0-0-0-0-0-0-0------------------|

[+]


|-----------------------------------------------------------------|
|-----------------------------------------------------------------|
|-----------------------------------------------------------------|
|-----------------------------------------------------------------|
|-----------------3-3---3-3---3-3-----------------4-4---4-4---4-4-|
|-000---0-0---0-0-----------------000---0-0---0-0-----------------|

. . . .



|-----------------------------------------------------------------|
|-----------------------------------------------------------------|
|-----------------------------------------------------------------|
|-------------------------------------------------4~~~~~~~~~~~~---|
|-3---------------2---2-2-3-0-1-2---------------------------------|
|-----0-0-0-0-0-0-----------------0---(0)---(0)-------------------|
|-----------------------------------------------------------------|
|-----------------------------------------------------------------|
|-----------------------------------------------------------------|
|-----------------------------------------------------------------|
|-----------------3-3---3-3---3-3-----------------4-4---4-4---4-4-|
|-000---0-0---0-0-----------------000---0-0---0-0-----------------|

. . . .



|-------------------------------------------------------------------|
|-------------------------------------------------------------------|
|-------------------------------------------------------------------|
|-----------------4---(4)---(4)-------------------4---5-------------|
|-3---(3)---(3)---2---(2)---(2)---2---(2)---(2)-----------3-------2-|
|-1---(1)---(1)-------------------0---(0)---(0)-------------------0-|
|-------------------------------------------------------------------------|
|-------------------------------------------------------------------------|
|-------------------------------------------------------------------------|
|-------------------------------------------------------------------------|
|-(2)-(2)-(2)-(2)-(2)-(2)-(2)-(2)-(2)-(2)-(2)-(2)-(2)-(2)-(2)-(2)-(2)-(2)-|
|-(0)-(0)-(0)-(0)-(0)-(0)-(0)-(0)-(0)-(0)-(0)-(0)-(0)-(0)-(0)-(0)-(0)-(0)-|
|-------------------------------------------------------------------------|
|-------------------------------------------------------------------------|
|-------------------------------------------------------------------------|
|-------------------------------------------------------------------------|
|-(2)-(2)-(2)-(2)-(2)-(2)-(2)-(2)-(2)-(2)-(2)-(2)-(2)-(2)-(2)-(2)-(2)-(2)-|
|-(0)-(0)-(0)-(0)-(0)-(0)-(0)-(0)-(0)-(0)-(0)-(0)-(0)-(0)-(0)-(0)-(0)-(0)-|
|-------------------------------------------------------------------------|
|-------------------------------------------------------------------------|
|-------------------------------------------------------------------------|
|-------------------------------------------------------------------------|
|-(2)-(2)-(2)-(2)-(2)-(2)-(2)-(2)-(2)-(2)-(2)-(2)-(2)-(2)-(2)-(2)-(2)-(2)-|
|-(0)-(0)-(0)-(0)-(0)-(0)-(0)-(0)-(0)-(0)-(0)-(0)-(0)-(0)-(0)-(0)-(0)-(0)-|
|-----------------------------|
|-----------------------------|
|-----------------------------|
|-----------------pick slide--|
|-(2)-(2)-(2)-(2)-------------|
|-(0)-(0)-(0)-(0)-------------|
|--------------------------------------------------------------|
|--------------------------------------------------------------|
|--------------------------------------------------------------|
|-----7--------------------------------------------------------|
|-8-----7---------------------8---5-7--------------------------|
|-------------0000000011110000------------00005555444400000000-|
|--------------------------------------------------------------|
|--------------------------------------------------------------|
|--------------------------------------------------------------|
|-----7--------------------------------------------------------|
|-8-----7---------------------8---5-7--------------------------|
|-------------0000000011110000------------00005555444400000000-|
|-----------------------------------------------------------------|
|-----------------------------------------------------------------|
|-----------------------------------------------------------------|
|-----------------------------------------------------7-----------|
|---------------7-------------------------------7-----------------|
|-5x--5x--5-8-----------0-0-0-0-0-5x--5x--5-8---------------------|
|-----------------------------------------------------------------|
|-----------------------------------------------------------------|
|-----------------------------------------------------------------|
|-----------------------------------------------------7-----------|
|---------------7-------------------------------7-----------------|
|-5x--5x--5-8-----------0-0-0-0-0-5x--5x--5-8---------------------|
|-----------------------------------------------------------------|
|-----------------------------------------------------------------|
|-----------------------------------------------------------------|
|-2-------(2)-------(2)-------(2)-------(2)-----------------------|
|-0-------(0)-------(0)-------(0)-------(0)-------3-------2-------|
|-------------------------------------------------1-------0-------|
|-----------------------------------------------------------------|
|-----------------------------------------------------------------|
|-----------------------------------------------------------------|
|-2-------(2)-------(2)-------(2)-------(2)-----------------------|
|-0-------(0)-------(0)-------(0)-------(0)-------3-------2-------|
|-------------------------------------------------1-------0-------|
|-----------------------------------------------------------------|
|-----------------------------------------------------------------|
|-----------------------------------------------------------------|
|-2-------(2)-------(2)-------(2)-------(2)-----------------------|
|-0-------(0)-------(0)-------(0)-------(0)-------3-------2-------|
|-------------------------------------------------1-------0-------|
|-----------------------------------------------------------------|
|-----------------------------------------------------------------|
|-----------------------------------------------------------------|
|-2-------(2)-------(2)-------(2)-------(2)-----------------------|
|-0-------(0)-------(0)-------(0)-------(0)-------3-------2-------|
|-------------------------------------------------1-------0-------|
|------------------------------------------------------------------|
|------------------------------------------------------------------|
|-------------------------------7~~--------------------------------|
|---------------------------------------------------9x--7x---------|
|-9---------------------7-------------------------7---------10-9---|
|-7-------0-------0-0-0-----0-0-----0-0-0-0-0-0-0------------------|

[+]


|------------------------------------------------------------------|
|------------------------------------------------------------------|
|-------------------------------7~~--------------------------------|
|---------------------------------------------------9x--7x---------|
|-9---------------------7-------------------------7---------10-9---|
|-7-------0-------0-0-0-----0-0-----0-0-0-0-0-0-0------------------|

[+]


|------------------------------------------------------------------|
|------------------------------------------------------------------|
|-------------------------------7~~--------------------------------|
|---------------------------------------------------9x--7x---------|
|-9---------------------7-------------------------7---------10-9---|
|-7-------0-------0-0-0-----0-0-----0-0-0-0-0-0-0------------------|

[+]


|------------------------------------------------------------------|
|------------------------------------------------------------------|
|-------------------------------7~~--------------------------------|
|---------------------------------------------------9x--7x---------|
|-9---------------------7-------------------------7---------10-9---|
|-7-------0-------0-0-0-----0-0-----0-0-0-0-0-0-0------------------|

[+]


|-----------------------------------------------------------------|
|-----------------------------------------------------------------|
|-----------------------------------------------------------------|
|---------4---9-----------5-------6---------------4-------9-------|
|-2-------2---7-----------3-------4---------------2-------7-------|
|-0---------------------------------------------------------------|
|-----------------------------------------------------------------|
|-----------------------------------------------------------------|
|-----------------------------------------------------------------|
|---------4---9-----------5-------6---------------4-------9-------|
|-2-------2---7-----------3-------4---------------2-------7-------|
|-0---------------------------------------------------------------|
|-----------------------------------------------------------------|
|-----------------------------------------------------------------|
|-----------------------------------------------------------------|
|---------4---9-----------5-------6---------------4-------9-------|
|-2-------2---7-----------3-------4---------------2-------7-------|
|-0---------------------------------------------------------------|
|-----------------------------------------------------------------|
|-----------------------------------------------------------------|
|-----------------------------------------------------------------|
|---------4---9-----------5-------6---------------4-------9-------|
|-2-------2---7-----------3-------4---------------2-------7-------|
|-0---------------------------------------------------------------|
|-----------|
|-----------|
|-----------|
|-----------|
|-2---2---x-|
|-0---0---x-|

.



| ~ vibrato
| + pinch harmonic
| x mute note
| (#) let ring

Danh sách hợp âm

Hợp âm: Pandemic Assault - Zonaria - cảm âm, tab guitar, ukulele - lời bài hát
Có thể bạn thích