Hợp âm - tab: Off I Go - Greg Laswell - cảm âm - lời bài hát

Cảm âm, tablature, hợp âm, tabs guitar, ukulele, lời bài hát: Off I Go - Greg Laswell - ( [Intro] (if you don't use Capo) [G#m] [B] [A] [C#7] ...)

--
[Intro]
(if you don't use Capo)
[G#m] [B]

e|---------------------------------|---------------------------------|
B|---------------------------------|---------------------------------|
G|-4---4---4---4---4---4---4---4---|-4---4---4---4---4---4---4---4---|
D|---6---6---6---6---6---6---6---6-|---4---4---4---4---4---4---4---4-|
A|---------------------------------|---------------------------------|
E|---------------------------------|---------------------------------|

[A] [C#7]

e|---------------------------------|---------------------------------|
B|---------------------------------|---------------------------------|
G|-4---4---4---4---4---4---4---4---|-4---4---4---4---4---4---4---4---|
D|---2---2---2---2---2---2---2---2-|---3---3---3---3---3---3---3---3-|
A|---------------------------------|---------------------------------|
E|---------------------------------|---------------------------------| x2


(if you use Capo)
[Em] [G]

g#|---------------------------------|---------------------------------|
D#|---------------------------------|---------------------------------|
B |-0---0---0---0---0---0---0---0---|-0---0---0---0---0---0---0---0---|
F#|---2---2---2---2---2---2---2---2-|---0---0---0---0---0---0---0---0-|
C#|---------------------------------|---------------------------------|
G#|---------------------------------|---------------------------------|

[C] [A7]

g#|---------------------------------|---------------------------------|
D#|---------------------------------|---------------------------------|
B |-0---0---0---0---0---0---0---0---|-0---0---0---0---0---0---0---0---|
F#|---------------------------------|---------------------------------|
C#|---3---3---3---3---3---3---3---3-|---4---4---4---4---4---4---4---4-|
G#|---------------------------------|---------------------------------| x2


[Verse]
[Em]Loose ends, they tangle down
[G]And then take flight
[C]But never tie me down
[A7]Never tie me down

[Em]Loose ends, they tangle down
[G]And then take flight
[C]But never tie me down
[A7]But never tie me down

[Chorus]
[Em]Off I go
[G]Where I fall is where I land
[C]Off I go
[A7]Where I fall is where I land

[Instrumental]
[Em] [G] [C] [A7]
[Verse]
[Em]Loose ends, theytangle down
[G]But then take flight
[C]But never tie us down
[A7]But never tie us down

[Em]Loose ends, they tangle down
[G]And then take flight
[C]But never tie us down
[A7]But never tie us down

[Chorus]
[Em]Off I go
[G]Where I fall is where I land
[C]Off I go
[A7]Where I fall is where I land

[Bridge]
(w/o Capo)
[G#m] [B]

e|---------------------------------|---------------------------------|
B|---------------------------------|---------------------------------|
G|-4---4---4---4---4---4---4---4---|-4---4---4---4---4---4---4---4---|
D|---6---6---6---6---6---6---6---6-|---4---4---4---4---4---4---4---4-|
A|---------------------------------|---------------------------------|
E|---------------------------------|---------------------------------|

[A] [C#7]

e|---------------------------------|---------------------------------|
B|---------------------------------|---------------------------------|
G|-4---4---4---4---4---4---4---4---|-4---4---4---4---4---4---4---4---|
D|---2---2---2---2---2---2---2---2-|---3---3---3---3---3---3---3---3-|
A|---------------------------------|---------------------------------|
E|---------------------------------|---------------------------------|x2


(w Capo)
[Em] [G]

e|---------------------------------|---------------------------------|
B|---------------------------------|---------------------------------|
G|-0---0---0---0---0---0---0---0---|-0---0---0---0---0---0---0---0---|
D|---2---2---2---2---2---2---2---2-|---0---0---0---0---0---0---0---0-|
A|---------------------------------|---------------------------------|
E|---------------------------------|---------------------------------|

[C] [A7]

e|---------------------------------|---------------------------------|
B|---------------------------------|---------------------------------|
G|-0---0---0---0---0---0---0---0---|-0---0---0---0---0---0---0---0---|
D|---------------------------------|---------------------------------|
A|---3---3---3---3---3---3---3---3-|---4---4---4---4---4---4---4---4-|
E|---------------------------------|---------------------------------|x2


[Instrumental]
[Em] [G] [C] [A7]
[Chorus]
[Em]Off I go
[G]Where I fall is where I land (Is where I land)
[C]Off I go
[A7]Where I fall is where I land (Is where I land)

[Outro]
[Em] [G] [C] [A7]

Danh sách hợp âm

Hợp âm: Off I Go - Greg Laswell - cảm âm, tab guitar, ukulele - lời bài hát
Có thể bạn thích