Hợp âm - tab: Mao Boy! - Indochine - cảm âm - lời bài hát

Cảm âm, tablature, hợp âm, tabs guitar, ukulele, lời bài hát: Mao Boy! - Indochine - ( Album:Paradize E:-------------------------------------...)

--
Album:Paradize



E:-------------------------------------
B:-------------------------------------
G:-------------------------------------
D:-------------------------------------
A:----------3-3-2-3-----------3-3-2-3--
E:-7-7-7-5-----------7-7-7-5-----------



[G]Tiens je c[Dm]rois
Que [Am]c'estmoi aujourd'[C]hui
De te [G]montrer tout [Dm]ça
Comm[Am]ent faire pour vivre i[C]ci
Mais [G]personne je cro[Dm]is
Ne [Am]m'a vraiment bien ap[C]pris

[G]Laisse moi te d[C]ire Boy
[G]C'est diffic[Am]ile
[G]La vie est s[C]ale boy
[G]Sous ses ét[Am]oiles



E:-------------------------------------
B:-------------------------------------
G:-------------------------------------
D:-------------------------------------
A:----------3-3-2-3-----------3-3-2-3--
E:-7-7-7-5-----------7-7-7-5-----------


Mais crois moi
Comme toi aussi j'ai peur
De la nuit, dehors
De tout ce que tu vas découvrir
Ici la vie, l'a mort
Crois moi je n'en suis pas très fier

Laisse moi te dire boy
Te voir dormir
C'est un peu mourir boy
Ainsi soit-il

On s'en [C]ira, on nous oublie[F]ra
Ainsi soit-[G]il
Et tu se[C]ras, la suite de ma [F]vie
Ainsi soit-[G]il
On part[C]ira, au milieu de [F]rien
Ainsi soit-[G]il



E:-------------------------------------
B:-------------------------------------
G:-------------------------------------
D:-------------------------------------
A:----------3-3-2-3-----------3-3-2-3--
E:-7-7-7-5-----------7-7-7-5-----------


Mais tu vois
Un jour tu comprendras
Des dieux, ici ou l
Que tout ça n'existe pas

On s'en ira, on nous oubliera
Ainsi soit-il
Et tu seras la suite de ma vie
Ainsi soit-il
On partira au milieu de rien
Ainsi soit-il

[G] [Dm] [AM] [C]
[G] [Dm] [AM] [C]
[G] [Dm] [AM] [C]

Mais tu vois
C'était juste pour te dire
J'aimerais bien que tu me crois
Qu'aussi loin que tu verras
Un chemin vers moi
Tu nous retrouveras

[G] [Dm] [AM] [C]

[G] [Dm] [AM] [C]
Tu es ma vie, la suite de ma vie
Ainsi soit-il
Tu m'as apprissauver ma vie
Ainsi soit-il
On partia fabriquer nos vies
Ainsi soit-il



E:-------------------------------------
B:-------------------------------------
G:-------------------------------------
D:-------------------------------------
A:----------3-3-2-3-----------3-3-2-3--
E:-7-7-7-5-----------7-7-7-5-----------
E:-------------------------------------
B:-------------------------------------
G:-------------------------------------
D:-------------------------------------
A:----------3-3-2-3-----------3-3-2-3--
E:-7-7-7-5-----------7-7-7-5-----------
E:-------------------------------------
B:-------------------------------------
G:-------------------------------------
D:-------------------------------------
A:----------3-3-2-3-----------3-3-2-3--
E:-7-7-7-5-----------7-7-7-5-----------
E:-------------------------------------
B:-------------------------------------
G:-------------------------------------
D:-------------------------------------
A:----------3-3-2-3-----------3-3-2-3--
E:-7-7-7-5-----------7-7-7-5-----------

Danh sách hợp âm

Hợp âm: Mao Boy! - Indochine - cảm âm, tab guitar, ukulele - lời bài hát
Có thể bạn thích