Hợp âm - tab: Lust a Prima Vista - The Spill Canvas - cảm âm - lời bài hát

Cảm âm, tablature, hợp âm, tabs guitar, ukulele, lời bài hát: Lust a Prima Vista - The Spill Canvas - ( I think these tabs (although not PERFECT) are pretty clos...)

--
I think these tabs (although not PERFECT) are pretty close!
I think anybody who loves this song can appreciate.


IMPORTANT: Tune down half step.

[0:00]


e|---0---0---------|
b|---7---5---14----|
g|---6---6---14----|
d|---7---7---11----|
a|---0---0---12----|
e|-----------------| [Intro]


During the intro, guitar 1 and 2 are playing around with these 3 chords.

[0:31]


e|-------------------|--------------------------|---|
b|----------------7--|--------------3--3--3--5--|---|
g|----------------7--|--------------2--2--4--6--|-2-|
d|-4---7---7--6---7--|-4---7-7--6---0--0--0--0--|-4-| GUITAR ONE
a|-4---7---7--7---5--|-4---7-7--7---------------|---|
e|-2---5---5--4------|-2---5-5--4---------------|---|
e|----------------------------------------|--------------------|
b|-10--------------------------------10---|--------------------|
g|-11------------------9------9/11----9---|-14-14-11---7-7-7-7-|
d|-11--11-11--9---/11-----11---------11---|-11-11--9---7-7-7-7-| GUITAR TWO
a|--9--12-12-11-----------------------9---|-12-12-11---5-5-5-5-|
e|----------------------------------------|--------------------|
e|----------------------------------------------|
b|-------------------2/3\2----------------------|
g|-------------------------------2--------------|
d|---------------------------2/4---2------------|
a|----------------------------------------------|
e|-------------------------------------2--------|

[in one fell swoop,.... it became clear to me....]

Pre-chorus riff [0:56]


e|-------------|
b|-------------|
g|-------------|
d|---------2---|
a|-----2h4---2-|
e|-2h5---------|


Chorus [0:58]



e|-2----0----2--|
b|-2----0----3--|
g|-2----1----2--|
d|-4----2----0--| GUITAR ONE
a|-4----2-------|
e|-2----0-------|
e|--------------------------------------------|
b|--9---9---9---9----9---9----9---9----9---9--|
g|-11--11--11--11---11--11---11--11---11--11--|
d|-11--11--11--11---11--11---11--11---11--11--| GUITAR TWO
a|--------------------------------------------|
e|--------------------------------------------|


Bridge Part 1 [1:53] "I'm on my knees..."



e|---------------------------------------------------------|
b|---------------------------------------------------------|
g|-4-------------------------------------------------------|
d|-7---------------9/11--11-11-11--9-9-9--6-6-6-6-6--7-7-7-|
a|-7-------------------------------------------------------|
e|-5-------------------------------------------------------|
e|-5--4--2--0--0---|
b|-5--5--2--3--5---|
g|-6--4--2--2--4---|
d|-7--6--4--0--2---|
a|-----------------|
e|-----------------|


Bridge Part 2 [2:06]



e|-2--------------2-2-----------------------|
b|-2--------------2-2-----------------------|
g|-2--------------2-2--/11-11-11--9-9-9-7-6-|
d|-4--------------4-4-----------------------| GUITAR ONE
a|-4------2h4-2---4-4---/9--9--9--7-7-7-5-4-|
e|-2--2h5-------5-2-2-----------------------|
e|-2--------------2-2-----------------------|
b|-2--------------2-2-----------------------|
g|-2--------------2-2-----------------------|
d|-4--------------4-4--/4-4-4--6-6-6--7-9---| GUITAR TWO
a|-4------2h4-2---4-4-----------------------|
e|-2--2h5-------5-2-2-----------------------|


SECOND TIME THROUGH... [2:18]



e|--------------------|
b|--------------------|
g|--------------------|
d|-7-7-7--6-6-6--4-2--| GUITAR TWO
a|--------------------|
e|--------------------|


FOURTH TIME THROUGH... [2:34]



e|-------------------|
b|-0--0--0--2--2-----|
g|-2--2--2--2--4--6--|
d|-0--0--0--0--0--0--| GUITAR TWO
a|-------------------|
e|-------------------|


Comments?
-BradyArmstr0ng@aol.com
-myspace.com/bradymasfina

Danh sách hợp âm

Hợp âm: Lust a Prima Vista - The Spill Canvas - cảm âm, tab guitar, ukulele - lời bài hát
Có thể bạn thích