Hợp âm - tab: Knife Edge - Matt Corby - cảm âm - lời bài hát

Cảm âm, tablature, hợp âm, tabs guitar, ukulele, lời bài hát: Knife Edge - Matt Corby - ( Tuning: Standard Intro Verse 1 Chorus Always on a ...)

--
Tuning: Standard

Intro


e|---------------------------------------------------------------------------|
B|---------------------------------------------------------------------------|
G|---------------------------------------------------------------------------|
D|---------7-6-5---5---------------------------------------------------------|
A|--5--5--------------8-7-------------8-7-5---5-6-7-7------------------------|
E|----------------------------6--5-5-----------------------------------------|


Verse 1


e|---------------------------------------------------------------------------|
B|---------------------------------------------------------------------------|
G|---------------------------------------------------------------------------|
D|---------7-6-5---5---------------------------------------------------------| x2
A|--5--5--------------8-7-------------8-7-5---5-6-7-7------------------------|
E|----------------------------6--5-5-----------------------------------------|


Chorus
Always on a [Dm]knife's edge here with you
[Gm]We're fading our of view
[C]You know my worry only [Em]comes from wanting more from you
[Dm]I get alone with you
[Gm]I hate it when we're cruel
[C]You know my worry only [Em]comes from fear of what I'd lose

Verse 2


e|---------------------------------------------------------------------------|
B|---------------------------------------------------------------------------|
G|---------------------------------------------------------------------------|
D|---------7-6-5---5---------------------------------------------------------| x2
A|--5--5--------------8-7-------------8-7-5---5-6-7-7------------------------|
E|----------------------------6--5-5-----------------------------------------|


Chorus
Always on a [Dm]knife's edge here with you
[Gm]We're fading our of view
[C]You know my worry only [Em]comes from wanting more from you
[Dm]I get alone with you
[Gm]I hate it when we're cruel
[C]You know my worry only [Em]comes from fear of what I'd lose

[Dm]I love that I can say I wouldn't feel this way without you[Gm]
[C]I love that I can say I wouldn't be this way without you[Em]

Verse 3


e|---------------------------------------------------------------------------|
B|---------------------------------------------------------------------------|
G|---------------------------------------------------------------------------|
D|---------------------------------------------------------------------------|
A|-------5-5---------------------------------7-7-----------------------------|
E|--5-5-------7-7---0-0---5-5--5-6-7-7---7-7-----9-9---2-2---7-7--7-8-9-9----|


Chorus

Always on a [Bm]knife's edge here with you
[Em]We're fading our of view
[A]You know my worry only [C#m]comes from wanting more from you
[Bm]I get alone with you
[Em]I hate it when we're cruel
[A]You know my worry only [C#m]comes from fear of what I'd lose

[Bm]I love that I can say I wouldn't feel this way without you[Em]
[A]I love that I can say I wouldn't be this way without you[C#m]

Danh sách hợp âm

Hợp âm: Knife Edge - Matt Corby - cảm âm, tab guitar, ukulele - lời bài hát
Có thể bạn thích