Hợp âm - tab: I'll Take You On - Howie Day - cảm âm - lời bài hát

Cảm âm, tablature, hợp âm, tabs guitar, ukulele, lời bài hát: I'll Take You On - Howie Day - ( I'll Take You On - Howie Day Tabbed by: Chris Case We...)

--

-------------------------------------------------------------------------------

I'll Take You On - Howie Day


-------------------------------------------------------------------------------

Tabbed by: Chris Case
Website: www.northsouthband.com
Email: chris@northsouthband.com

Tuning: Standard (Capo 1)

Chords Used
[G] [Em] [D/F#] [Am] [F] [D] [E7] [B7]

e|--3---0---2-----0---1--2---0---2-------------------------------------------|
B|--3---0---3-----1---1--3---0---0-------------------------------------------|
G|--0---0---2-----2---2--2---1---2-------------------------------------------|
D|--0---2---0-----2---3--0---0---1-------------------------------------------|
A|--2---2---0-----0---3------2---2-------------------------------------------|
E|--3---0---2---------1------0-----------------------------------------------|


Opening Lick


e|---2---------0---------2-----------0---------------------------------------|
B|-----3---------3---------3-------3---3-------3-----------------------------|
G|-------4---------4---------4---4-------4---4-------------------------------|
D|---------5---------2---------5-----------2---------------------------------|
A|---------------------------------------------------------------------------|
E|---------------------------------------------------------------------------|


Opening:
[G] [Em] [G] [Em] [D/F#]
[G]Make me fall d[Em]own
Make me get u[G]p[Em][D/F#]
[G]And if I'm a[Em]lright
Make sure I'm sca[G]red to death[Em][D/F#]
[Am] Ma[G]ybe I'm u[D/F#]seless
[G]If I [D/F#]just could [Em]remember
[Am] M[G]aybe I'm ne[D/F#]rvous
And I'[Em]ll m[D/F#]ake you s[G]urrender

Take you [Em]on[D/F#][G]
[Em]I'll t[D/F#]ake you [C]on

[G]I'll [F]give it all a[C]way
But you don[G]'t
But you do[D]n't
[G]I'll [F]give it all aw[C]ay
But you do[G]n't f[D/F#]eel much be[C]tter

Said it yourself
Said I'm not ready
And telling myself
But it's not sinking in
Maybe I'm new at this
It is just your reaction?
Be my illusion and I'll be your distraction

I'll take you on
I'll give it all away
But you don't
But you don't
I'll give it all away
But you d[G]on't [D/F#]feel much be[E7]tter

[Em]Would I be hu[B7]rt?
It wouldn't h[C]urt
See you aga[G]in
You [D/F#]see what I me[Em]ant
I told you [B7]before
That I n[C]ever wanted to fe[G]el like t[D/F#]his aga[Am]in

[G] [D/F#] [G] [D/F#] [Em] [Am] [G] [D/F#] [Em] [D/F#] [G]
[Am] [G] [D/F#] [G] [D/F#] [Em] [Am] [G] [D/F#] [Em] [D/F#][G][Em][D/F#][C]
I'll give it all away
But you don't
But you don't
I'll give it all away
But you don't feel much better
| / slide up
| \ slide down
| h hammer-on
| p pull-off
| ~ vibrato
| + harmonic
| x Mute note

Danh sách hợp âm

Hợp âm: I'll Take You On - Howie Day - cảm âm, tab guitar, ukulele - lời bài hát
Có thể bạn thích