Hợp âm - tab: For Stevie Wonderâs Eyes Only - Bring Me the Horizon - cảm âm - lời bài hát

Cảm âm, tablature, hợp âm, tabs guitar, ukulele, lời bài hát: For Stevie Wonderâs Eyes Only - Bring Me the Horizon - ( I couldn't find the right tab anywhere online so I decide...)

5 months ago155 Bring Me the Horizon
--
I couldn't find the right tab anywhere online so I decided to tab it myself. I'm about 98% sure
this tab is right. Maybe a little mistake here and there but overall it sounds just like
the song.

Enjoy!

"For Stevie Wonders Eyes Only (Braille)"
Bring Me The Horizon
Count Your Blessings



|-----------------------------------|
|-----------------------------------|
|-----------------------------------|
|-----------------------------------|
|--------------------------888-777--|
|--777-888-444-555-777-888----------|

... ... ... ... ... ...



|---------------------------------------------------------------------------9h11h12--|
|-------------------------------------------------------------------8h10h11----------|
|---------------------------------6h8h9-----------------------6h8h9------------------|
|--------------------------5h7h8------------------------5h7h8------------------------| x2
|------8p5-7p4-----8p5-7p4------------------8p5-7p4----------------------------------|
|--0-0---------0-0----------------------0-0---------0-0------------------------------|

. . . . . . . .



|--------------------------------------------------------------------|
|--------------------------------------------------------------------|
|--------------------------------------------------------------------|
|--------------------------------------------------------------------| x2
|--5-----4h5---8---7-------5--------------------------------888-777--|
|----0-0-----0---0---0-000---0-000--777-888-444-555-777-888----------|

. . . . . ... . ... ... ... ... ... ... ...



[|-------------------------------------------------------------------------------|
[|-------------------------------------------------------------------------------|
[|-------------------------------------------------------------------------------|
[|-----------------------7-------8p5-------------8------------------------5h7h8--|
[|--10p7-------------------8-------------5/8--8--------------------5h7h8---------|
[|--------0--0--000-000-------0-------0-------------0--0--000-000----------------|

. . ... ... . . . . ... ...



|---------------------|
|---------------------|
|--6h7p6-----6--------|
|---------8-----5-----|
|------------------7--|
|---------------------|
|------------------------------------------------------------------------------------|]
|------------------------------------------------------------------------------------|]
|------------------------------------------------------------------------------------|]x2
|------------------7-------8p5-------------8------------------------7h8p7--------7--|]
|--------------------8-------------5/8--8--------------------5h7h8---------8--5------|]
|---0--0--000-000-------0-------0-------------0--0--000-000--------------------------|]

. . ... ... . . . . ... ...



|------------------------------17p13-13-------13-15-17-15p12--------|
|---------------------------------------15-17----------------14-----|
|---------------------------------------------------------------14--|
|-------------------7h8p7-7----------------------------------------|
|-----------8-------------------------------------------------------|
|--0--0--0----0--0--------------------------------------------------|

. . . . .



|---------------------------------------------------------------------------------|
|---------------------------------------------------------------------------------|
|---------------------------------------------------------------------------------|
|--------------7h8p7-7---------------7---6----------------7h8p7-7--------------|
|--------8--------------------5-4-5------------------8---------------------5-4-5--|
|--0-0-0---0-0----------0-0-0-------0---0------0-0-0---0-0-----------0-0-0--------|

. . . . . . . . . . . . . . . . . .



|---------------|
|---------------|
|----------3-7--|
|------3-7------| x4
|--4-5----------|
|---------------|
|-------------------------------------------------------------|
|-------------------------------------------------------------|
|-------------------------------------------------------------|
|-------------------------------------------------------------| x4
|--000--------000----0----000--------000----0--0--0--0--0--0--|
|--000--------000----0----000--------000----0--0--0--0--0--0--|

... ... . ... ... . . . . . .



|--------------------|
|--------------------|
|--------------------|
|--------------------|
|--0-0-0--12tr-10tr--|
|--0-0-0-------------|

. . .



|---------------------------------------------------------------------------------|
|---------------------------------------------------------------------------------|
|---------------------------------------------------------------------------------|
|---------------------------------------------------------------------------------|
|--------8tr-7tr-----------12tr-10tr-8tr-10tr-----------5-------7-------8---------|
|--0-0-0-----------0-0-0-0----------------------88888888-8888888-8888888-8888888--|

. . . . . . . ........ ....... ....... .......


|---------------------------------------|
|------------------6-5-------5-----5-6--|
|----------------------7-6-7---6-7------|
|---------------------------------------|
|----------5----------------------------|
|--77777777-7777777---------------------|

........ .......



|----------------------------------------------|
|----------------------------------------------|
|----------------------------------------------|
|----------------------------------------------|
|--------8tr-7tr-----------12tr-10tr-8tr-10tr--|
|--0-0-0-----------0-0-0-0---------------------|

. . . . . . .
[ Tab from: http://www.guitartabs.cc/tabs/b/bring_me_the_horizon/for_stevie_wonders_eyes_only_tab_ver_3.html ]


|--17-15----15--------------------------------------------------------------|
|--------18----18-17-18-17-15-17-15----15-----------------------------------|
|-----------------------------------18----18-15-18-15----15-----------------|
|-----------------------------------------------------17----17-15-17-15-14--|
|---------------------------------------------------------------------------|
|---------------------------------------------------------------------------|
|--15-12----12--------------------------------------------------------------|
|--------14----14----14-----------------------------------------------------|
|-----------------15----15-12-15-12----12-----------------------------------|
|-----------------------------------14----14-11-14-11-----------------------|
|-----------------------------------------------------13-13-10----10--------|
|--------------------------------------------------------------14----14-11--|
|-------|
|-------|
|-------|
|--0----|
|--0----|
|--0----|

.



[|-------------------------------------------------------------------------------|
[|-------------------------------------------------------------------------------|
[|-------------------------------------------------------------------------------|
[|-----------------------7-------8p5-------------8------------------------5h7h8--|
[|--10p7-------------------8-------------5/8--8--------------------5h7h8---------|
[|--------0--0--000-000-------0-------0-------------0--0--000-000----------------|

. . ... ... . . . . ... ...



|---------------------|
|---------------------|
|--6h7p6-----6--------|
|---------8-----5-----|
|------------------7--|
|---------------------|
|------------------------------------------------------------------------------------|]
|------------------------------------------------------------------------------------|]
|------------------------------------------------------------------------------------|]x4
|------------------7-------8p5-------------8------------------------7h8p7--------7--|]
|--------------------8-------------5/8--8--------------------5h7h8---------8--5------|]
|---0--0--000-000-------0-------0-------------0--0--000-000--------------------------|]

. . ... ... . . . . ... ...



|--------------------|
|--------------------|
|--------------------|
|--------------------|
|---0~------------0--|
|---0~------------0--|

.



|----------------------------------------------------------------------------------|
|----------------------------------------------------------------------------------|
|----------------------------------------------------------------------------------|
|----------------------------------------------------------------------------------| x2
|--8tr-5tr----8tr-5tr-8tr-5tr-7tr-4tr----7tr-4tr-7tr-4tr---------------------------|
|---------------------------------------------------------8tr--------5tr----7tr----|
|----------------------------------------------------------------------------------|
|----------------------------------------------------------------------------------|
|----------------------------------------------------------------------------------|
|----------------------------------------------------------------------------------| x2
|--8tr-5tr----8tr-5tr-8tr-5tr-7tr-4tr----7tr-4tr-7tr-4tr--8----------5------7------|
|---------------------------------------------------------8----------5------7------|
|-------------------------------------------------------------------------------------|
|-------------------------------------------------------------------------------------|
|-------------------------------------------------------------------------------------|
|-------------------------------------------------------------------------------------|
|--0---0---0---0---8p5h8p5h8p5h8p5h8p5h8p5---0---0---0---0---8p5h8p5h8p5h9p6h9p6h9p6--|
|--0---0---0---0-----------------------------0---0---0---0----------------------------|

. . . . . . . .



|------------------------------------------------------------------|
|------------------------------------------------------------------|
|------------------------------------------------------------------|
|------------------------------------------------------------------| x2
|--0---0---0---0---4p1h4p1h4p1h4p1h4p1h4p1---0---4-------0---1-----|
|--0---0---0---0-----------------------------0---4-------0---1-----|

. . . . . .



|---------------------------------------------------------------------------------|
|---------------------------------------------------------------------------------|
|---------------------------------------------------------------------------------|
|--------------7h8p7-7---------------7---6----------------7h8p7-7--------------|
|--------8--------------------5-4-5------------------8---------------------5-4-5--|
|--0-0-0---0-0----------0-0-0-------0---0------0-0-0---0-0-----------0-0-0--------|

. . . . . . . . . . . . . . . . . .



|---------------|
|---------------|
|----------3-7--|
|------3-7------| x2
|--4-5----------|
|---------------|
|---------|
|---------|
|---------|
|---------|
|--0------|
|--0------|

.



|---------------------------------------------------------------------------------|
|---------------------------------------------------------------------------------|
|---------------------------------------------------------------------------------|
|--------------7h8p7-7---------------7---6----------------7h8p7-7--------------|
|--------8--------------------5-4-5------------------8---------------------5-4-5--|
|--0-0-0---0-0----------0-0-0-------0---0------0-0-0---0-0-----------0-0-0--------|

. . . . . . . . . . . . . . . . . .



|---------------|
|---------------|
|----------3-7--|
|------3-7------| x4
|--4-5----------|
|---------------|
|---------|
|---------|
|---------|
|---------|
|--0------|
|--0------|

Danh sách hợp âm

Hợp âm: For Stevie Wonderâs Eyes Only - Bring Me the Horizon - cảm âm, tab guitar, ukulele - lời bài hát
Có thể bạn thích