Hợp âm - tab: Dreams Burn Down - Ride - cảm âm - lời bài hát

Cảm âm, tablature, hợp âm, tabs guitar, ukulele, lời bài hát: Dreams Burn Down - Ride - ( Guitar 1 (Drive + Reverb + Tremolo Bar): [Intro] E|--...)

2 years ago389 Nowhere (1990) Ride
--
Guitar 1 (Drive + Reverb + Tremolo Bar):

[Intro]



E|----2-2-2-2-2----2-2-2-2-2----3-3-3-3-3----0-0-0-0-0----0-0-0---|
B|----3-3-3-3-3----3-3-3-3-3----3-3-3-3-3----2-2-2-2-2----0-0-0---|
G|----2-2-2-2-2----2-2-2-2-2----0-0-0-0-0----2-2-2-2-2----0-0-0---|
D|----0-0-0-0-0----4-4-4-4-4----0-0-0-0-0----2-2-2-2-2----2-2-2---| x2
A|----0-0-0-0-0----4-4-4-4-4----2-2-2-2-2----0-0-0-0-0----2-2-2---|
E|------------------------------3-3-3-3-3-----------------0-0-0---|


[Verse]

"Lying under sky..."



E|----2-2-2-2-2----2-2-2-2-2----3-3-3-3-3----0-0-0-0-0----0-0-0---|
B|----3-3-3-3-3----3-3-3-3-3----3-3-3-3-3----2-2-2-2-2----0-0-0---|
G|----2-2-2-2-2----2-2-2-2-2----0-0-0-0-0----2-2-2-2-2----0-0-0---|
D|----0-0-0-0-0----4-4-4-4-4----0-0-0-0-0----2-2-2-2-2----2-2-2---| x2
A|----0-0-0-0-0----4-4-4-4-4----2-2-2-2-2----0-0-0-0-0----2-2-2---|
E|------------------------------3-3-3-3-3-----------------0-0-0---|



[Chorus]

"Waiting, hoping for a sign..."



E|----2-2-2-2-2----3-3-3-3-3----|
B|----3-3-3-3-3----3-3-3-3-3----|
G|----2-2-2-2-2----0-0-0-0-0----|
D|----0-0-0-0-0----0-0-0-0-0----| x1
A|----0-0-0-0-0----2-2-2-2-2----|
E|-----------------3-3-3-3-3----|
E|----4-4-4-4-----2-2-2-|
B|----3-3-3-3-----3-3-3-|
G|----2-2-2-2-----2-2-2-|
D|----0-0-0-0-----0-0-0-| x4
A|----------------------|
E|----------------------|


"I just want what I can't have..."



E|----0-0-0-0-0----3-3-3-3-3----|
B|----2-2-2-2-2----3-3-3-3-3----|
G|----2-2-2-2-2----0-0-0-0-0----|
D|----2-2-2-2-2----0-0-0-0-0----| x1
A|----0-0-0-0-0----2-2-2-2-2----|
E|-----------------3-3-3-3-3----|
E|----4-4-4-4-----2-2-2-|
B|----3-3-3-3-----3-3-3-|
G|----2-2-2-2-----2-2-2-|
D|----0-0-0-0-----0-0-0-| x4
A|----------------------|
E|----------------------|


The Rhythm guitar plays this, is the lead guitar that does that weird but beautiful noise.

[Verse 2]

"She's effortlessly cool..."




E|----2-2-2-2-2----2-2-2-2-2----3-3-3-3-3----0-0-0-0-0----0-0-0---|
B|----3-3-3-3-3----3-3-3-3-3----3-3-3-3-3----2-2-2-2-2----0-0-0---|
G|----2-2-2-2-2----2-2-2-2-2----0-0-0-0-0----2-2-2-2-2----0-0-0---|
D|----0-0-0-0-0----4-4-4-4-4----0-0-0-0-0----2-2-2-2-2----2-2-2---| x2
A|----0-0-0-0-0----4-4-4-4-4----2-2-2-2-2----0-0-0-0-0----2-2-2---|
E|------------------------------3-3-3-3-3-----------------0-0-0---|


[Chorus]
Same as before

"Waiting, hoping for a sign..."



E|----2-2-2-2-2----3-3-3-3-3----|
B|----3-3-3-3-3----3-3-3-3-3----|
G|----2-2-2-2-2----0-0-0-0-0----|
D|----0-0-0-0-0----0-0-0-0-0----| x1
A|----0-0-0-0-0----2-2-2-2-2----|
E|-----------------3-3-3-3-3----|
E|----4-4-4-4-----2-2-2-|
B|----3-3-3-3-----3-3-3-|
G|----2-2-2-2-----2-2-2-|
D|----0-0-0-0-----0-0-0-| x4
A|----------------------|
E|----------------------|


"I just want what I can't have..."



E|----0-0-0-0-0----3-3-3-3-3----|
B|----2-2-2-2-2----3-3-3-3-3----|
G|----2-2-2-2-2----0-0-0-0-0----|
D|----2-2-2-2-2----0-0-0-0-0----| x1
A|----0-0-0-0-0----2-2-2-2-2----|
E|-----------------3-3-3-3-3----|
E|----4-4-4-4-----2-2-2-|
B|----3-3-3-3-----3-3-3-|
G|----2-2-2-2-----2-2-2-|
D|----0-0-0-0-----0-0-0-| x4
A|----------------------|
E|----------------------|


[Outro]



E|----0-0-0-0-0----3-3-3-3-3----|
B|----2-2-2-2-2----3-3-3-3-3----|
G|----2-2-2-2-2----0-0-0-0-0----|
D|----2-2-2-2-2----0-0-0-0-0----| x1
A|----0-0-0-0-0----2-2-2-2-2----|
E|-----------------3-3-3-3-3----|
E|----4-4-4-4-----2-2-2-|
B|----3-3-3-3-----3-3-3-|
G|----2-2-2-2-----2-2-2-|
D|----0-0-0-0-----0-0-0-| x4
A|----------------------|
E|----------------------|
E|----0-0-0-0-0----3-3-3-3-3----|
B|----2-2-2-2-2----3-3-3-3-3----|
G|----2-2-2-2-2----0-0-0-0-0----|
D|----2-2-2-2-2----0-0-0-0-0----| x1
A|----0-0-0-0-0----2-2-2-2-2----|
E|-----------------3-3-3-3-3----|
E|----4-4-4-4-----2-2-2-|
B|----3-3-3-3-----3-3-3-|
G|----2-2-2-2-----2-2-2-|
D|----0-0-0-0-----0-0-0-| x4
A|----------------------|
E|----------------------|


Finish with....



E|---0---------|
B|---2---------|
G|---2---------|
D|---2---------|
A|---0---------|
E|-------------|

Danh sách hợp âm

Hợp âm: Dreams Burn Down - Ride - cảm âm, tab guitar, ukulele - lời bài hát
Có thể bạn thích