Hợp âm - tab: Buried Alive - Dropkick Murphys - cảm âm - lời bài hát

Cảm âm, tablature, hợp âm, tabs guitar, ukulele, lời bài hát: Buried Alive - Dropkick Murphys - ( Band: Dropkick Murphys Song: Buried Alive Album: Blackout...)

--
Band: Dropkick Murphys
Song: Buried Alive
Album: Blackout
Tabber: clark@theoddmenout.com

Intro:

(Bb,Eb)x3,f,Bb

Riff 1: x3 x1


e--6-6-----6--6-6-6-6--|--6-6-6-6-6--|
B--6-6-6-6-6--8-6-8-6--|--6-6-6-6-6--|
G------7h8----8-8-8-8--|--7-7-8-7-7--|
D----------------------|----------8--|
A----------------------|-------------|
E----------------------|-------------|


Verse 1:
[Bb]Nothing they could [Eb]do just [Bb]sit down [Eb]there
Bb Eb f Bb
As the black closed all around them
And the [Bb]water [Eb]rose so [Bb]quick and [Eb]cold
Bb Eb f
An unlikely place to drown

Chorus:
Eb Bb f Bb
Nine in the mine, trapped down below
[Eb]Down! [Bb]Down! [F]Down in the [Bb]ground
And [Eb]this would be the [Bb]day I didn't [F]kiss my wife good[Bb]bye
Eb Bb f Bb
Take care of my family, I'm buried alive

Verse 2:
They [Bb]held their [Eb]heads up [Bb]high[Eb]
Bb Eb f Bb
As they strugged hard to breathe
And [Bb]asked the [Eb]Lord to [Bb]open his [Eb]arms
Bb Eb f
For the nine souls he'd receive

Chorus x1

(Bb.Eb)x3,f,Bb

Solo:


e--6-6--6-6--6-6-6-6-6--6-6----------------------------|
B--8-8--6-8--6-6-6-6-6--6-6------------3-----3--3------|
G--8-8--8-8----8--------8-7---5-5--3-5---5-3------5-3--|
D------------------------------------------------------|
A------------------------------------------------------|
E------------------------------------------------------|
e--6-6--6-6--6------6-6-6-6-6-------------------------|
B--8-8--6-8--6-8-6--8-8-8-6-6--6-6--6-6-6--6-6-6--6---|
G--8-8--8-8----8-8--8-8-8-8-8--5-5--5-7-7--7-8-8--10--|
D-----------------------------------------------------|
A-----------------------------------------------------|
E-----------------------------------------------------|


Verse 3:
They [Bb]lashed them[Eb]selves to[Bb]gether
Eb Bb Eb f Bb
So in Death all might be found
And [Bb]prayed there [Eb]for a [Bb]mira[Eb]cle
Bb Eb f
Some twenty-four stories down

Chorus x1

Bagpipe Lead:
(Eb) (Bb) (Eb) (f) (Eb) (Bb) (f) (Bb)


e--15-13------------------------------15-13-----------------------------|
B---------15--13-----13h15-13----15----------15--13-----13h15-13--------|
G----------------15-----------15--------------------15-----------14-15--|
D-----------------------------------------------------------------------|
A-----------------------------------------------------------------------|
E-----------------------------------------------------------------------|

("Down, Down, Down in the ground...")

That's it! For suggestions, corrections, and requests, email me:
oddmenout4@yahoo.com

Danh sách hợp âm

Hợp âm: Buried Alive - Dropkick Murphys - cảm âm, tab guitar, ukulele - lời bài hát
Có thể bạn thích