Hợp âm - tab: As You Are - Travis - cảm âm - lời bài hát

Cảm âm, tablature, hợp âm, tabs guitar, ukulele, lời bài hát: As You Are - Travis - ( Chords used: Capo on the 3rd fret. C:.............332010...)

3 years ago329 The Man Who (1999) Travis
--
Chords used:
Capo on the 3rd fret.

C:.............332010
Cmaj7:.........332000
Em:............022000
G:.............320033
G7:............320001
F:.............133211
Fmaj7:.........033210
Am:............002210
D:.............x00232
Dsus4:.........x00233

Outro Chords:

C:.............332010
Cmaj7/G#:......332100
Cmaj7/A:.......332200

Intro: Repeat C

Verse:

[C]Everyday I w[Cmaj7]ake up alon[Em]e because[G]
I'm not like all the others boys........[G7]
[C]And ever since I wa[Cmaj7]s young
[Em]I had no choice[G]
[G]But it's OK to lead me on
[G]I admit it's not much fun
[G]to be led on by such a one.......[G7]

Chorus:

As [F]you are
As [Am]you are
As [D]you are.....[D][Dsus4][D][Dsus4]

Verse:

[C]And ever sin[Cmaj7]ce I woke up I[Em] felt the net.....[G]
[G]Was lifting me out the sea........[G7]
[C]And even whe[Cmaj7]n I'm sinking I[Em] feel the need.....[G]
[G]But it's OK to lead me on
[G]I admit it's not much fun
[G]to be led on by such a one.........[G7]

Chorus:

As y[F]ou are
As y[Am]ou are
As y[D]ou are...

then:

D Dsus4 D D-Dsus4 D-Dsus4 D-Dsus4 D ^^Dsus4^^ D

Middle section: ( guitar solo )

On electric:



e|-----------------------------------------------------|
b|-----------------------------------------------------|
g|----------------------8-p7-h8---7--------------------|
d|-----------------8-------------------8---------------|
a|----6-----8/10----------------------------10---6/8---|
E|-----------------------------------------------------|
e|--------------------------------------------------------------|
b|--------------------------------------------------------------|
g|-------------------------10-----------------------------------|
d|---------8-h10---10/12--------10/12---10---8-h10-p8-------8---|
a|--8-h10-----------------------------------------------10------|
E|--------------------------------------------------------------|
e|-------------------8--------------------|
b|-----------8--11------11---8-8----------|
g|---8---10-----------------------10------|
d|----------------------------------------|
a|----------------------------------------|
E|----------------------------------------|
e|--------------------------------------------------------------|
b|--------------------------------------------------------------|
g|----8--7--5--3--3/5--5/7--8--10--12--b10----------------------|
d|--------------------------------------------------------------|
a|--------------------------------------------------------------|
E|--------------------------------------------------------------|


On acoustic:

Verse:

[C] [Cmaj7] [Em] [G]
G7 X2

then:

with distortion:



e|-------------------------------------------|
b|-----------11------------------------------|
g|--10^(12)------10^(12)-8-----8-------------|
d|--------------------------10-----10---8----|
a|-------------------------------------------|
E|-------------------------------------------|

string bends



e|--------------------------------------------------|
b|--------------------------------------------------|
g|--------------------------------------------------|
d|--------------------------------------------------|
a|--10---8------8-\6-h8-/10-----8---6---------------|
E|--------------------------------------8-8----6--8-|


Chorus:

[F]
[Am]
[D]

and then on two guitars:

D Dsus4 D D-Dsus4 D-Dsus4 D-Dsus4 D ^^Dsus4^^ D

Bridge:

[C]And ever since a long ti[Cmaj7]me
[Em]I felt the rai[F]n
[Am]And there was [F]no danger
[Em]And no more st[F]rangers.........o[Fmaj7]h

Outro:

[C]As yo[Cmaj7/G#]u are oh....[Cmaj7/A]..[Cmaj7/G#][C]

[C]Oh...[Cmaj7/G#].........[Cmaj7/A][Cmaj7/G#][C]

[C]Oh...[Cmaj7/G#].........[Cmaj7/A][Cmaj7/G#][C]

[C]Oh...[Cmaj7/G#].........[Cmaj7/A][Cmaj7/G#][C]

C.


wait for your comments. thanx..

Danh sách hợp âm

Hợp âm: As You Are - Travis - cảm âm, tab guitar, ukulele - lời bài hát
Có thể bạn thích