Hợp âm - tab: Ancora in piedi - Ligabue - cảm âm - lời bài hát

Cảm âm, tablature, hợp âm, tabs guitar, ukulele, lời bài hát: Ancora in piedi - Ligabue - ( ~~~~~~~~~~~~~~~ ANCORA IN PIEDI ~~~~~~~~~~~~~~~ D9: x002...)

--
~~~~~~~~~~~~~~~
ANCORA IN PIEDI
~~~~~~~~~~~~~~~

D9: x00230
A4: 002230

(Intro)
(Grazie per alcune correzioni ad Andrea Zanovello)
Chitarra elettrica distorta



e|---------------------|-------------------|
B|---------------------|-------------------|
G|---------------------|-------------------|
D|---------------0--2--|-------------------|
A|----------0h2--------|-------------------|
E|---------------------|--0----------------|

lasciar suonare l'ultima nota
vvvv


---------------------|--------2--5--4--4----0--|
---------------------|-----3-------------------|
---------------------|-------------------------|
---------------0--2--|--4----------------------|
----------0h2--------|-------------------------|
---------------------|-------------------------|


poi prosegue sotto la strofa:



---------------------|------------------|
---------------------|------------------|
---------------------|------------------|
---------------------|------------------|
---------------------|------------------|
------------0--3--0--|------------------|

...avuti troppe volte senza un perche'



-----------------10--12--|----------------10-9-|
--------------10---------|---------------------|
-------------------------|---------------------|
-------------------------|---------------------|
-------------------------|---------------------|
-------------------------|---------------------|

...sopravvissuti alle nostre...



--10--9----------------|--------------------------|
-----------10----------|--------------------------|
-----------------------|--------------------------|
-----------------------|--------------------------|
-----------------------|--------------------------|
-----------------------|--------------------------|
-------------------5--4--0--|---------------------|
----------------------------|--0------------------|
----------------------------|---------------------|
----------------------------|---------------------|
----------------------------|---------------------|
----------------------------|---------------------|

...ridicole

Riff principale (Grazie ad Andrea Zanovello)



--------------------------------------------------------------|
------------10-9--7----0--------------------------------------|
-9-9---11---------7------0h2----------------------------------|
-9-9-9----9-------7------------0h2----------------------------|
-----------------------------2--------------------------------|
--------------------------------------------------------------|
--------------------------------------------------------------|
------------10-9--7----0--------------------------------------|
-9-9---11---------7------0h2----------------------------------|
-9-9-9----9-------7------------2------------------------------|
-----------------------------2--------------------------------|
--------------------------------------------------------------|


[E]Sopravvissuti a [A]troppi sorrisi
avuti [D]troppe volte [A]senza un per[E]che'
Sopravvissuti alle [A]nostre domande
che son [D]grosse, son ta[A]nte
e spesso [E]ridicole.
Sopravvissuti e [A]sopravviventi
cosi[D]' e ades[A]so e qu[E]i.[D]
[E]Sopravvissuti ai [D]nostri pro[A]getti
acqua, [D9]sabbia, pa[A4]letta e ca[E]stelli cosi'.

[E]Persi o [A]no siamo ancora in [D]piedi
[E]non so [A]chi, ma qualcuno [D]si sentira' cosi'
[E]Persi o [A]no siamo ancora in [D]piedi
[E]siamo ancora che, siamo an[A]cora chi,
[D]siamo ancora chi, siamo an[A]cora che ne [E]so...

(C.S.)
Sopravvissuti ai nostri pensieri
a consigli, sbadigli, falsi sensi unici
Sopravvissuti alle voci gridate
come ai troppi silenzi, come ai mormorii
Sopravvissuti e sopravviventi
ma chi? E che ne so...
Sopravvissuti ai sensi di colpa:
c'e' chi puo' non ascolta e, cazzo,
c'e' chi non puo'

Persi o no siamo ancora in piedi
non so chi, ma qualcuno si sentira' cosi'
persi o no siamo ancora in piedi
siamo ancora che, siamo ancora chi,
siamo ancora chi, siamo ancora che ne so...

[Bm] E' un mare pieno di zat[D]tere
e' un ma[A]re pieno di[E] salvagen[Bm]ti
e' un mare con qualche i[D]sola[A]

Sopravvissuti a vecchi e nuovi dolori
che aspettiamo i vaccini, nel frattempo chissa'
Sopravvissuti a tutto questo letame
quanti bagni e profumi e mascherine antigas
Sopravvissuti e sopravviventi
un po' su, un po' giu, un po' su
Sopravvissuti ai '60 ai '70
e gli '80 finiranno mai piu'?

Persi o no siamo anocra in piedi
non so chi ma qualcuno si sentira' cosi'
persi o no siamo ancora in piedi
siamo ancora che, siamo ancora chi,
siamo ancora chi, siamo ancora che ne so...

Danh sách hợp âm

Hợp âm: Ancora in piedi - Ligabue - cảm âm, tab guitar, ukulele - lời bài hát
Có thể bạn thích