Chord/Tab song: The Last Goodbye - David Cook

Chord,Tablature, lyric, sheet, guitar, ukulele song: The Last Goodbye - David Cook - ( verse 1&2: [D] [F#m] [D] [A/C#] pre-chorus: [B...)

--
verse 1&2:

[D]

E|-------------------------------------------------------------|
A|-------------------------------------------------------------|
D|-9---9------9---9---9------9---9---9------9---9---9------9---|
G|-x---x------x---x---x------x---x---x------x---x---x------x---|
B|-11--11-----11--11--11-----11--11--11-----11--11--11-----11--|
E|-------------------------------------------------------------|

[F#m]

E|-------------------------------------------------------------|
A|-------------------------------------------------------------|
D|-12--12-----12--12--12-----12--12--12-----12--12--12-----12--|
G|-x---x------x---x---x------x---x---x------x---x---x------x---|
B|-14--14-----14--14--14-----14--14--14-----14--14--14-----14--|
E|-------------------------------------------------------------|

[D]

E|-------------------------------------------------------------|
A|-------------------------------------------------------------|
D|-7---7------7---7---7------7---7---7------7---7---7------7---|
G|-x---x------x---x---x------x---x---x------x---x---x------x---|
B|-5---5------5---5---5------5---5---5------5---5---5------5---|
E|-------------------------------------------------------------|

[A/C#]

E|-------------------------------------------------------------|
A|-------------------------------------------------------------|
D|-7---7------7---7---7------7---7---7------7---7---7------7---|
G|-x---x------x---x---x------x---x---x------x---x---x------x---|
B|-4---4------4---4---4------4---4---4------4---4---4------4---|
E|-------------------------------------------------------------|


pre-chorus:

[Bm]i wonder if he holds you like i did
[G]i hope that he can love you bett[Bm]er

cause we were everything that's right at
[A/C#]the wrong time

chorus:
i didnt wanna l[D]ose you
leave you with a br[Bm]oken heart
but wherever we a[G]re

we're miles apart
i know that [A]we tried

but this is the last goodbye
[D]oh, i didnt wanna [F#m]let you go
but wherever we [G]are

we're miles apart
i know that [A]we tried

but this is the last goodbye

bridge:



E|-------------------------|
A|-------------------------|
D|-------------------------|
G|-4-----7-----7-----------|
B|-2-----4-----5-----------| x3 (then strum an Em)
E|-------------------------|

Oh, woah, oh

Chords List

Chord: The Last Goodbye - David Cook - tab, song lyric, sheet, guitar, ukulele
Maybe you like