Chord/Tab song: The In Crowd - Mitchel Musso

Chord,Tablature, lyric, sheet, guitar, ukulele song: The In Crowd - Mitchel Musso - ( ARTIST/BAND: Mitchel Musso Tuning: Standard Capo: 3rd fre...)

--
ARTIST/BAND: Mitchel Musso
Tuning: Standard
Capo: 3rd fret

CHORDS USED:
C: 032010 (032013)
C/B: 020013
Em7: 020033
Am: 002210 (002033)
F: 003211 (003213)
G: 320003 (320013)

INTRO/VERSE PICKING x2:
[C] [Em7] [Am] [C/B]

e|-------3-----|-------3-----|-------3-----|-------3-----|
B|---------1---|---------3---|---------3---|---------1---|
G|-----0-------|-----0-------|-----0-------|-----0-------|
D|-------------|-------------|-------------|-------------|
A|---3---------|---2---------|---0---------|---2---------|
E|-------------|-------------|-------------|-------------|


VERSE:
[C] Spin away the combin[Em7]ation for the last time.
[Am] Say goodby[C/B]e to this [C]year.
I wish I could [Em7]avoid the empt[Am]y summer days that[C/B] await me[C].
They'll fake a [Em7]smile goodbye,[Am] celebrating [C/B]their new freedom[C].
I sit a[Em7]lone on the c[Am]ouch
[C/B]Wondering [F]why,

CHORUS PICKING:
[F] [F] [C] [G]

e|-------3-----|-------3-----|-------3-----|-------3-----|
B|---------1---|---------1---|---------1---|---------1---|
G|-----2-------|-------------|-----0-------|-----0-------|
D|---3---------|---3---------|-------------|-------------|
A|-------------|-------------|---3---------|-------------|
E|-------------|-------------|-------------|---3---------|


AND IN THE END OF CHORUS WITH JUST F AND G:

[F] [F] [G]

e|-------3-----|-------3-----|-------------|
B|---------1---|---------1---|---------3---|
G|-----2-------|-------------|-------0-----|
D|---3---------|---3---------|-----0-------|
A|-------------|-------------|-------------|
E|-------------|-------------|---3---------|


CHORUS:
[F] I wonder what its [C]like to ha[G]ve it all [F]
To never be af[C]raid that [G]I would fall[F]
But I dont think I've [C]ever [G]known a ti[F]me
That I was [G]part of the in[C] crowd[Em7][Am][C/B][C][Em7][Am][C/B]

VERSE:
[C] Here we go another [Em7]day another disgrace.
[Am] Fall flat[C/B] on my f[C]ace,
I wish I had a [Em7]bunch of money
[Am] Catch a plane[C/B] head out west
[C] Go on and [Em7]play around
[Am]All full of the [C/B]fans and freedom
[C] I sit a[Em7]lone on the c[Am]ouch
[C/B]Wondering why

CHORUS (not picking):
[F] I wonder what its [C]like to ha[G]ve it all [F]
To never be af[C]raid that [G]I would fall[F]
But I dont think I've [C]ever [G]known a ti[F]me
That I was p[G]art of the in[C] crowd[Em7][Am][C/B]

BRIDGE:
[F] Doesnt anyone h[Am]ere live an o[G]riginal l[F]ife
[F] What did you sur[Am]render to be [G]on the ins[F]ide,
[F] When you disapp[Am]ear they wont re[G]member your na[F]me
[F] And you'll fade a[Am]way and someone [G]takes you[F]r plac[C]e.
[G] Takes your pl[F]ace[Am][G]
In the in[C] cr[Em7]owd[Am][C/B][C][Em7][Am][C/B]

VERSE:
[C] Spin away the combin[Em7]ation for the last time.
[Am] Say goodby[C/B]e to this [C]year.
I wish I could [Em7]avoid the empt[Am]y summer days that[C/B] await me[C].
They'll fake a [Em7]smile goodbye,[Am] celebrating [C/B]their new freed[C]om.
I sit a[Em7]lone on the c[Am]ouch
But I'm ready to fly

CHORUS:
[F] I wonder what its [C]like to ha[G]ve it all [F]
To never be af[C]raid that [G]I would fall[F]
But I dont think I've [Am]ever k[G]nown a tim[F]e
[F] I wonder what its [C]like to ha[G]ve it all [F]
To never be af[C]raid that [G]I would fall[F]
But I dont think I've [C]ever [G]known a ti[F]me
That I was [G]part of the in[F] cro[C]wd[G]

Of the in[F] cro[Am]wd[G]
In the in[F] cro[C]wd[G][F][Am][G]

[F] I dont need an[C]ything that I [G]cant find in m[F]e
[F] Im alive I have b[Am]een out of li[G]ne at the e[F]nd
[F] Waiting for something m[C]ore something n[G]ew to beg[F]in
[F] Waiting for something m[Am]ore somew[G]ay to fit i[F]n[C][G]
In the [F]in cr[Am]owd[G]
In the i[C]n crowd

Chords List

Chord: The In Crowd - Mitchel Musso - tab, song lyric, sheet, guitar, ukulele
Maybe you like