Chord/Tab song: Someone Somewhere - Jason Reeves

Chord,Tablature, lyric, sheet, guitar, ukulele song: Someone Somewhere - Jason Reeves - ( http://www.cdbaby.com/cd/jasonreeves3 http://www.myspace....)

--
http://www.cdbaby.com/cd/jasonreeves3
http://www.myspace.com/jasonreeves

jason reeves posted the chords on his myspace blog.
i expanded the tabs a little bit and this is how i play it.
i also didn't know the exact names of all the chords he provided
so i went to wikipedia and/or made up names. ha.
everything's relative to capo.

edited
standard tuning
CAPO 3

INTRO

Dsus2 (x00230) Dsus2


e-------0------0------0-----------------0-------0------0-----------|
B---3------3------3------3---3------3------3------3------3---3-----|
G-----2------2------2------2----------2-------2------2-----2-------|
D-0-------------------------------0--------------------------------|
A------------------------------------------------------------------|
E------------------------------------------------------------------|


Em9 (020032) D (x02030)


e-------2------2------2-----------------0-------0------0-----------|
B---3------3------3------3---3------3------3------3------3----3----|
G-----0------0------0------0----------0-------0------0-----0-------|
D---------------------------------2--------------------------------|
A-2----------------------------------------------------------------|
E------------------------------------------------------------------|


VERSE 1: (same as intro)



e-------0------0------0-----------------0-------0------0-----------|
B---3------3------3------3---3------3------3------3------3---3-----|
G-----2------2------2------2----------2-------2------2-----2-------|
D-0-------------------------------0--------------------------------|
A------------------------------------------------------------------|
E------------------------------------------------------------------|

someone is waiting. someone who understands ex-



e-------2------2------2-----------------0-------0------0-----------|
B---3------3------3------3---3------3------3------3------3---3-----|
G-----0------0------0------0----------0-------0------0-----0-------|
D---------------------------------2--------------------------------|
A-2----------------------------------------------------------------|
E------------------------------------------------------------------|

-actly how you feel, exactly how you feel.



e-------0------0------0-----------------0-------0------0-----------|
B---3------3------3------3---3------3------3------3------3---3-----|
G-----2------2------2------2----------2-------2------2-----2-------|
D-0-------------------------------0--------------------------------|
A------------------------------------------------------------------|
E------------------------------------------------------------------|

someone is dreaming. someone is hoping just that



e-------2------2------2-----------------0-------0------0-----------|
B---3------3------3------3---3------3------3------3------3---3-----|
G-----0------0------0------0----------0-------0------0-----0-------|
D---------------------------------2--------------------------------|
A-2----------------------------------------------------------------|
E------------------------------------------------------------------|

this will be day, that this will be the day


PRE-CHORUS

Em7 (x22030) Bm (x24432) A (x02220)
that/but you take your eyes off the ground, out of the

Em7 Bm A D (xx0232)
blue and see that someone is looking right back at you


CHORUS
A Em (022000)
maybe that someone's me maybe it's meant to be lovers

Bm G (320003) A D
strangers, sometimes bombs fall quietly

maybe it's chemist[A]ry maybe it's hard to [Em]see

Bm G A (let it ring)
that someone is the right one i hope that someone is me


(Play this ."me" before the 2nd verse)


e-------0------0------0-----------------0-------0------0-----------|
B---3------3------3------3---3------3------3------3------3---3-----|
G-----2------2------2------2----------2-------2------2-----2-------|
D-0-------------------------------0--------------------------------|
A------------------------------------------------------------------|
E------------------------------------------------------------------|



VERSE 2: (same as verse 1, but strummed instead)

n[Dsus2]obody's perfect no[Dsus2]body's perfect

Em9 D
no one really knows the truth all we've got's a point of view.

and there's t[Dsus2]oo many questions there's[Dsus2] too many questions

Em9 D
and too many reasons not to try. there's too many reasons not to try.


PRE-CHORUS

but [Em7]you should take your e[Bm]yes off the gr[A]ound, out of the

Em7 Bm A D (xx0232)
blue and see that someone is looking right back at you


CHORUS
maybe that someone's [A]me maybe it's meant to [Em]be lovers

s[Bm]trangers,[G] sometimes b[A]ombs fall quietl[D]y

maybe it's chemist[A]ry maybe it's hard to [Em]see

that someone[Bm] is the right one[G] i hope that so[A]meone is


BRIDGE:

[Em-G]me. where ya gonna go from h[A-Bm]ere?

'cause everything you need's o[Em-G]ut there

and you can have it if you d[Bm]are if you d[A]are.

t[G]here's someone s[Em]omewhere th[G]ere's someone so[Bm]mewhere

G Em D A7(x02020)
there is someone somewhere there's someone somewhere


CHORUS (lightly strummed until "maybe it's chemistry")

[D]maybe that someone's [A]me maybe it's meant to [Em]be lovers

s[Bm]trangers,[G] sometimes b[A]ombs fall quietly.[D]

maybe it's chemist[A]ry, maybe it's hard to [Em]see

that someone[Bm] is the right one[G]. i hope that s[A]omeone is [D]me

someone is [A]me someone is [Em]me[Bm]

i hope that[G] i hope that so[A]meone is [D]me.

Chords List

Chord: Someone Somewhere - Jason Reeves - tab, song lyric, sheet, guitar, ukulele
Maybe you like