Chord/Tab song: Say You'll Be There - Spice Girls

Chord,Tablature, lyric, sheet, guitar, ukulele song: Say You'll Be There - Spice Girls - ( Subject: tab: s/spice_girls_/say_youll_be_there.tab Date:...)

3 months ago34 Other Songs Spice Girls
--
Subject: tab: s/spice_girls_/say_youll_be_there.tab
Date: Tue, 24 Feb 1998 10:20:00 -0000


SONG: SAY YOU'LL BE THERE
ARTIST: SPICE GIRLS
ALBUM: SPICE
WRITTEN BY: SPICE GIRLS/KENNEDY
PUBLISHED BY: WINDSWEPT PACIFIC MUSIC LTD/SONY ATV MUSIC

PUBLISHING
TRANSCRIBED BY: THIJS VAN THIENEN
(THIJSVAN.THIENEN@SCOTTISHTELECOM.COM)
This is probably the best song Spice Girls have ever done. I'm one
of
those sad bastards who actually likes the Spice Girls (and admits
it)
so I decided to work it out. It's fairly simple in its chord
progressions, and therefore quite easy to interpret in a way that
suits you best.

SAY YOU'LL BE THERE - SPICE GIRLS
intro: (keyboard arranged for guitar)
[Bm] [E] [G] [D]

e|------------2---------------------------------------------------|
B|----------3-----5---3-------7---5---3-------3---3---------------|
G|4-------4-------4-----4-----4---4-----4-----0---2---------------|
D|4---------------6-----------6---6-----------0---0---------------|
A|2---------------------------------------------------------------|
E|----------------------------------------------------------------|

riff A: (keyboard arranged for guitar)
[Bm] [E] [G] [D]

e|----7-------5---------------------------------------------------|
B|0-------7-------5---3-0---5^7---5---3-----5^7---5---3-----3-2---|
G|--------------------------------------2-----------------2-----2-|
D|----------------------------------------------------------------|
A|----------------------------------------------------------------|
E|----------------------------------------------------------------|


riff B: (played over bridge)
[C] [Bm] [Bb] [A]

e|----------------------------------------------------------------|
B|8---------------7---------------6---------------5---5---5---5---|
G|--------9---------------7---------------7-------6---6---6---6---|
D|----------------------------------------------------------------|
A|----------------------------------------------------------------|
E|----------------------------------------------------------------|


riff C: (played over bridge 2)
[Bm] [E] [Bm] [E]

e|----7-------5-----------------------7-------5-------------------|
B|0-------7-------5---3-0---7~~~~~~-------7-------5~~~~~~~5^12----|
G|----------------------------------------------------------------|
D|----------------------------------------------------------------|
A|----------------------------------------------------------------|
E|----------------------------------------------------------------|

Bridge 2:
[Bm] [E]Say you will be there
[Bm] [-]Won't you say it with me?

Chords List

Chord: Say You'll Be There - Spice Girls - tab, song lyric, sheet, guitar, ukulele
Maybe you like