Chord/Tab song: Pigeon frit kill tucky - Vulgaires Machins

Chord,Tablature, lyric, sheet, guitar, ukulele song: Pigeon frit kill tucky - Vulgaires Machins - ( Standard tuning INTRO: |-[A]5--[C]8--| |-5--8--| |-6--9...)

--
Standard tuning

INTRO:

|-[A]5--[C]8--|
|-5--8--|
|-6--9--|
|-7--10-|


|-------|
|-------|


Intro Solo:



|--------------------------|--------------------------|
|--------------------------|------------------------5-|
|--------------------------|--------------------5-7-x-|
|-----7-5-4----------------|-----7-5-4----------x-x-2-|
|-4-7-------7-4-5--7---5-7-|-4-7-------7-4-5--7-3-5---|
|--------------------7-----|--------------------------|


VERSE:

[A] [G] [D] [C]

|------------|
|------------|
|-------7--5-|
|-7--5--7--5-|
|-7--5--5--3-|
|-5--3-------|


V'la la recette qui va ...
...?a ressembleune belette qui accouche

(intro solo)

(Other guitar plays this during solo)

[A] [C]

|-------|
|-------|
|----5--|

|-7--5--|
|-7--3--|


|-5-----|


(repeat verse)

V'la la recette qui va ...
...engraissé par ses restes

PRECHORUS:

[B] [C]

|------|
|------|

|----5-|
|-9--5-|
|-9--3-|
|-7----|

J'ai peur, j'ai pu faim !

CHORUS:

A E F x3 C E C


|-----------|---------|
|-----------|---------|
|-----------|-5-----5-|
|-7--2--3---|-5--2--5-|
|-7--2--3---|-3--2--3-|
|-5--0--1---|----0----|


(Solo bit)



|----------------------------------------|
|----------------------------------------|
|----------------------------------------|
|-10--9-7--10--9-7--10-10-10-10-10-10-10-|
|----------------------------------------|
|----------------------------------------|


Non mais...
...J'ai peur !

(intro solo)

(repeat verse)

V'la la recette qui va faire vomir la planète ...
...si l'humain devient dieu

(repeat prechorus)

J'ai peur, j'ai pu faim !

(chorus)

Non mais ce sera quoi demain ...
..J'ai peur !

SOLO:



|---------------------------------|
|---------------------------------|
|-9b\4-6----------9-7-4--7-8-9-12-|
|-7-----7-8-8-9-9-----------------|
|---------------------------------|
|---------------------------------|
|----------------------------------------------|
|-13-13-10----------13-------13----------------|
|----------12-9-11b----9-11b----7---------7-9b-|
|---------------------------------10-9-10---6b-|
|----------------------------------------------|
|----------------------------------------------|


(chorus)



-------------------------------------------------


Paul G

Chords List

Chord: Pigeon frit kill tucky - Vulgaires Machins - tab, song lyric, sheet, guitar, ukulele
Maybe you like