Chord/Tab song: Nobody Came - Silverchair

Chord,Tablature, lyric, sheet, guitar, ukulele song: Nobody Came - Silverchair - ( tuning: high to low [E] [B] [A] [D] [A] [D]my guitar...)

--
tuning: high to low
[E]
[B]
[A]
[D]
[A]
[D]my guitar teacher listened to this song and said that it
was more than likely to bein htis tuning, so thats how
i worked it out.
/tremolo pick. (rapidly 'strum' note.



----------------|-----------------|----------------|-----------------|--------
--------------3-|-----------------|--------------3-|-------5---5-----|--------
----0---3-0---0-|---0---3---0---0-|----0---3-0---0-|---0---3---3---0-|--------
-2--2---2-2-----|---2---2---2---2-|-2--2---2-2-----|---2-----------2-|--------
-0----0-----0---|-0---0---0---0---|-0----0-----0---|-0---0---0---0---|--------
----------------|-----------------|----------------|-----------------|--------

second half of verse



--------------0-|-----------------|----------------|-----------------|--------
--------------0-|-----------------|--------------3-|-------5--5-5-3--|--------
----0---0-----0-|--0--------------|----0---3-0---0-|---0---3--3-3-0--|--------
-3----3-----3---|----3---3-3-3-0--|-2--2---2-2-----|---2-------------|--------
-3--------3-----|------3---3-3-0--|-0----0-----0---|-0---0-----------|--------
-3--------------|-----------------|----------------|-----------------|--------
--------------0-|-----------------|----------------|-----------------|--------
--------------0-|-----------------|----------------|-----------------|--------
----0---0-----0-|---0-------------|----0--3-0--5---|--0---0----------|--------
-3----3---3-----|-------3-3-3-----|----0--0-0--0---|--0---0----------|--------
-3----------3---|-----3---3-3-----|-0--------------|-----------------|--------
-3--------------|-----------------|-0--------------|-----------------|--------

noisy bit.



-0-0-0-0-0-0-0-0|---|-0-0-0-0-0-0-0-0-|---|-----------------------------------
-4-4-4-4-4-4-4-4|---|-5-5-5-5-5-5-5-5-|---|-----------------------------------
-0-0-0-0-0-0-0-0|---|-0-0-0-0-0-0-0-0-|---|-----------------------------------
----------------|x2-|-----------------|x2-|-----------------------------------
----------------|---|-----------------|---|-----------------------------------
----------------|---|-----------------|---|-----------------------------------

end of chorus



----------------|-----------------|----------------|--------------------------
----------------|-----------------|----------------|--------------------------
----------------|-----------------|----------------|--------------------------
------6---------|-----------------|-------6--------|--------------------------
-5-5------------|-----------------|-5-5------------|--------------------------
-0-0------------|-----------------|-0-0------------|--------------------------

bit after mad solo. (i'm still working on the mad bit)



----------------|------------------|------------------|-----------------------
----------------|------------------|------------------|-----------------------
-878--10--10108-|-12-12-12b13r12b13|-12--10--12b13-12-|-12b13-12b13-12b13-----
----------------|------------------|------------------|-----------------------
----------------|------------------|------------------|-----------------------
----------------|------------------|------------------|-----------------------
-----------------|-----------------|------------------|-----------------------
-----------------|-----------------|------------------|-----------------------
-12b13--8-8--6b8-|-8---8b10--8b10r-|-7/---8/--7/------|8/--7-7---8------------
-----------------|-----------------|------------------|-----------------------
-----------------|-----------------|------------------|-----------------------
-----------------|-----------------|------------------|-----------------------

bend 0 below behind nut?, i think.



--------------------|--------------|------------------------------------------
--------------------|--------------|------------------------------------------
-3-----------2----0-|--0b1r--------|------------------------------------------
--------------------|--------------|------------------------------------------
--------------------|--------------|------------------------------------------
--------------------|--------------|------------------------------------------

rit (slow down) now play intro'a tempo'(original speed)

Chords List

Chord: Nobody Came - Silverchair - tab, song lyric, sheet, guitar, ukulele
Maybe you like