Chord/Tab song: New Hope Generation - Falling Up

Chord,Tablature, lyric, sheet, guitar, ukulele song: New Hope Generation - Falling Up - ( Song: New Hope Generation Band: Falling Up Album: Crashin...)

--
Song: New Hope Generation
Band: Falling Up
Album: Crashings
Year: 2004
Record: BEC
Tuning: Drop D (DADGBE)

Intro:


E[-----------------------------------------------------------]
B[-----------------------------------------------------------]
G[----------------------9/9/9/9----------------------5/5/5/5-]
D[-0/0/0x-0/0/0x-0/0/0x-x/x/x/x-0/0/0x-0/0/0x-0/0/0x-x/x/x/x-] (2X)
A[-0/0/0x-0/0/0x-0/0/0x-7/7/7/7-0/0/0x-0/0/0x-0/0/0x-3/3/3/3-]
D[-0/0/0x-0/0/0x-0/0/0x---------0/0/0x-0/0/0x-0/0/0x---------]


Verse 1:


E[---------------------------]
B[---------------------------]
G[---------------------------]
D[-10~-5~-7~-5/5-5/5-5/5-5/5-] (2X)
A[--7~-3~-5~-3/3-3/3-3/3-3/3-]
D[--7~-3~-5~-3/3-3/3-3/3-3/3-]

pm ...............

Pre chorus:


E[--------------------------------------------------------------------------]
B[--------------------------------------------------------------------------]
G[-2/2-2/2-2/2-2/2---------------------2/2-2/2-2/2-2/2----------------------]
D[----3---3---3---3---10---10---10---10---3---3---3---3---10---10---10---10-]
A[-----------------0/0--0/0--0/0--0/0------------------0/0--0/0--0/0--0/0---]
D[--------------------------------------------------------------------------]

pm ... ... ... ... ... ... ... ... ... ... ... ... ... ... ... ...

then...
E[-----]
B[-7~-]
G[-----]
D[-----]
A[-----]
D[-----]

Chorus:


E[---------------------------------------------]
B[---------------------------------------------]

G[-99999999-1010101010101010-55555555-77777777-]
D[-77777777-1010101010101010-33333333-55555555-] (2X)


A[-77777777--8-8-8-8-8-8-8-8-33333333-55555555-]
D[-77777777------------------33333333-55555555-]


Post Chorus:


E[-----------------------------------------------------------]
B[-----------------------------------------------------------]
G[----------------------9/9/9/9----------------------5/5/5/5-]
D[-0/0/0x-0/0/0x-0/0/0x-x/x/x/x-0/0/0x-0/0/0x-0/0/0x-x/x/x/x-]
A[-0/0/0x-0/0/0x-0/0/0x-7/7/7/7-0/0/0x-0/0/0x-0/0/0x-3/3/3/3-]
D[-0/0/0x-0/0/0x-0/0/0x---------0/0/0x-0/0/0x-0/0/0x---------]


Verse 2:


E[---------------------------]
B[---------------------------]
G[---------------------------]
D[-10~-5~-7~-5/5-5/5-5/5-5/5-] (2X)
A[--7~-3~-5~-3/3-3/3-3/3-3/3-]
D[--7~-3~-5~-3/3-3/3-3/3-3/3-]

pm ...............

Pre chorus:


E[--------------------------------------------------------------------------]
B[--------------------------------------------------------------------------]
G[-2/2-2/2-2/2-2/2---------------------2/2-2/2-2/2-2/2----------------------]
D[----3---3---3---3---10---10---10---10---3---3---3---3---10---10---10---10-]
A[-----------------0/0--0/0--0/0--0/0------------------0/0--0/0--0/0--0/0---]
D[--------------------------------------------------------------------------]

pm ... ... ... ... ... ... ... ... ... ... ... ... ... ... ... ...

then...
E[-----]
B[-7~-]
G[-----]
D[-----]
A[-----]
D[-----]

Chorus:


E[---------------------------------------------]
B[---------------------------------------------]

G[-99999999-1010101010101010-55555555-77777777-]
D[-77777777-1010101010101010-33333333-55555555-] (2X)


A[-77777777--8-8-8-8-8-8-8-8-33333333-55555555-]
D[-77777777------------------33333333-55555555-]


Bridge:


E[-----------------]
B[-----------------]
G[-----------------]

D[-77x-77x-77x-77x-]
A[-77x-77x-77x-77x-]
D[-77x-77x-77x-77x-]

then...


E[---------------------------------------------]
B[---------------------------------------------]

G[-99999999-77777777-1010101010101010-99999999-]
D[-77777777-55555555-1010101010101010-77777777-] (2X)


A[-77777777-55555555--8-8-8-8-8-8-8-8-77777777-]
D[-77777777-55555555------------------77777777-]


then...


E[-------------------------------------------------7-]
B[------------------------8--------------------------]
G[----10------------10-10------10------------10-10---]
D[-10-10-9-##-##-10-10-10---10-10-9-##-##-10-10-10---] (2X)
A[--7--8-7-##-##--7--8--8----7--8-9-##-##-10--8--8---]
D[--7----7-##-##--7----------7----7-##-##--7---------]


Chorus 2:


E[---------------------------------------------]
B[---------------------------------------------]

G[-99999999-1010101010101010-55555555-77777777-]
D[-77777777-1010101010101010-33333333-55555555-]


A[-77777777--8-8-8-8-8-8-8-8-33333333-55555555-]
D[-77777777------------------33333333-55555555-]
E[-----------------------------------------------------------]
B[-----------------------------------------------------------]
G[-99x-99x-9/9/9/9-1010x-1010x-10/10/10/10-55555555-77777777-]
D[-77x-77x-7/7/7/7-1010x-1010x-10/10/10/10-33333333-55555555-]
A[-77x-77x-7/7/7/7--8-8x--8-8x--8/-8/-8/-8-33333333-55555555-]
D[-77x-77x-7/7/7/7-------------------------33333333-55555555-]


Outro:


E[-----------------------------------------------------------]
B[-----------------------------------------------------------]
G[----------------------9/9/9/9----------------------5/5/5/5-]
D[-0/0/0x-0/0/0x-0/0/0x-x/x/x/x-0/0/0x-0/0/0x-0/0/0x-x/x/x/x-] (2X)
A[-0/0/0x-0/0/0x-0/0/0x-7/7/7/7-0/0/0x-0/0/0x-0/0/0x-3/3/3/3-]
D[-0/0/0x-0/0/0x-0/0/0x---------0/0/0x-0/0/0x-0/0/0x---------]


TAB legend:
/: eighth note
x: deaden string
~: hold note
pm...:palm mute
: harmonic note
#: scratch string (most people use x, but i use x for deaden string)

That's it. really easy to play once you get the prechorus down. Please rate!

Chords List

Chord: New Hope Generation - Falling Up - tab, song lyric, sheet, guitar, ukulele
Maybe you like