Hợp âm - tab: Nervous - Gavin James - cảm âm - lời bài hát

Cảm âm, tablature, hợp âm, tabs guitar, ukulele, lời bài hát: Nervous - Gavin James - ( [Intro] [Am7] [F] [C] [C/B] e|--------------|----------...)

--
[Intro]
[Am7] [F] [C] [C/B]

e|--------------|------------------|-----------------|---------------------|
B|-----1--------|-------1----------|-------1-------1-|------1-------1------|
G|--------0-----|-0h2-----2p0---0--|---0-------0-----|----------0----------|
D|----2-----2h3-|-----3-------3----|-----2-------2---|----2-------0--------|
A|-0------------|------------------|-3---------------|-3------2------------|
E|--------------|-1----------------|-----------------|---------------------|


[Am7] [F] [C] [G]

e|----3p0-------|------------------|--------------|------------------------|
B|---1----1-----|-------1----------|------1-----1-|-------1-------0--------|
G|---0------0---|-0h2-----2p0---0--|--------0-----|---0-------0------------|
D|---2--------2-|-----3-------3----|----2-----2---|-----2-------0----------|
A|-0-0----------|------------------|--3-----------|-3----------------------|
E|--------------|-1----------------|--------------|---------3--------------|


[Verse 1]
[Am7] [F] [C] [G]

e|----------------|------------------|---------------|---------------------|
B|-------1--------|--------1-------1-|------1------1-|-------0h1p0---------|
G|---0------0-----|-0h2--------2-----|---------0-----|---0---------0-------|
D|-----2------2h3-|------3---3---3---|-0h2-------2---|-----0---------0-----|
A|-0--------------|------------------|-3-------------|---------------------|
E|----------------|-1----------------|---------------|-3-------------------|


I promise that I'll hold you when it's cold out

[Am7] [F] [C] [C/B]

e|----------------|------------------|---------------|---------------------|
B|-------1--------|--------1-------1-|------1------1-|-------1--------1----|
G|---0------0-----|-0h2--------2-----|---------0-----|---0-------0---------|
D|-----2------2h3-|------3---3---3---|-0h2-------2---|-----2-------0-------|
A|-0--------------|------------------|-3-------------|-3-------2-----------|
E|----------------|-1----------------|---------------|---------------------|


When we lose our winter coats in the spring

[Am7] [F] [C] [Em]

e|-----------------|------------------|---------------|-------0------------|
B|-------1---------|--------1-------1-|------1-------1|--------------------|
G|---0-------0-----|-0h2--------2-----|----------0----|---0-------0--------|
D|-----2-------2h3-|------3---3---3---|-0h2--------2--|-----2---2---0h2----|
A|-0-------0-------|------------------|-3------3------|--------------------|
E|-----------------|-1----------------|---------------|-0------------------|


Cause lately I was thinking I never told you

[F] [C] [C/B]

e|----------------|----------------|---------------|-----------------------|
B|-------1-------1|------1-------1-|-----1-------1-|------1-------1--------|
G|-0h2-------2----|----2-----2-----|--0------0-----|--0-------0------------|
D|-----3-------3--|------------3---|----2------2---|----2-------0----------|
A|----------------|----------------|3------3-------|3-------2--------------|
E|-1-------1------|-1------1-------|---------------|-----------------------|


That every time I see you my heart sings

[Am7] [F] [C] [G]

e|-----------------|-----------------|-----------------|-------------------|
B|-------1-------1-|-------1-------1-|--------1------1-|-------0-----------|
G|---0-------0-----|-0h2-------2-----|----0------0-----|---0-------0-------|
D|-----2-------2---|-----3---3---3---|------2------2---|-----0-------0h2---|
A|-0-------0-------|-----------------|--3--------------|-------------------|
E|-----------------|-1---------------|-----------------|-3-------3---------|


Cause we lived at the carnival in summer

[Am7] [F] [C] [C/B]

e|-----------------|-----------------|------------------|------------------|
B|-------1-------1-|-------1-------1-|---------1------1-|------1-------1---|
G|---0-------0-----|-0h2-------2-----|-------0----0-----|--0-------0-------|
D|-----2-------2---|-----3---3---3---|--0h2---------2---|----2-------0-----|
A|-0-------0-------|-----------------|--3---------------|3-------2---------|
E|-----------------|-1---------------|------------------|------------------|


We scared ourselves to death on a ghost train

[Am7] [F] [C] [Em]

e|-----------------|-----------------|------------------|-------0----------|
B|-------1-------1-|-------1-------1-|---------1------1-|------------------|
G|---0-------0-----|-0h2-------2-----|-------0----0-----|---0-------0------|
D|-----2-------2---|-----3---3---3---|--0h2---------2---|-----2-------0h2--|
A|-0-------0-------|-----------------|--3---------------|------------------|
E|-----------------|-1---------------|------------------|-0-------0--------|


And just like every ferris wheel stops turning

[F] [C] [G]

e|-----------------|---------0-----|---------------|-----------------------|
B|-------1-------1-|-----1/3-------|------1-------1|-------0---------------|
G|-0h2-------2-----|---2---------0-|--0-------0----|---0-------0-----------|
D|-----3-------3---|---------------|----2-------2--|-----0-------0h2-------|
A|-----------------|---------------|3-------3------|-----------------------|
E|-1-------1-------|1--------------|---------------|-3-------3-------------|


Oh I guess we had an expiration date

[F] [Fm] [C]

e|----------------|-----------1-----|---------------3-|--------------------|
B|-------1-------1|-------1---------|-------1---------|-------3-------(1)--|
G|---2-------2----|---1-----------1-|---0-------0--0--|---0--0----0--(0)---|
D|-----3-------3--|-----3-------3---|-----2-------2---|-----2-------(2)----|
A|----------------|-----------------|-3-------3-------|-3-------3----------|
E|-1-------1------|-1-------1-------|-----------------|--------------------|


So I won't say I love you, it's too late

[Chorus]
[Am]Oooh[F][C][G]
[Am]Oooh[F][C][C][C/B]
[Am]Oooh[F][C][Em]
[F]Oooh[Fm][C][C][C/B]

[Verse 2]
'Cause [Am]every time I [F]saw you I got [C]nervou[G]s
[Am]Shivering and sha[F]king at the k[C]nees[C/B]
And j[Am]ust like every s[F]ong I haven't h[C]eard yet [Em]no
I d[F]idn't know the w[Fm]ords in front of [C]me
In front of [G]me, and [G#dim7]oh[Am]
I don't want t[Fsus2]o know
Who'll take you [C]home[Em]?[F]
Who'll take you [C]home[Em]?[F]
Who'll take you [Am]home, [C/B]home, [C]home[F]?
If I let[Fm] you go[(C)]

[Transition]
[C] [(Am)]

e|------------3--|-------------------|
B|-----1---------|------3---1--------|
G|--0-----0--0---|--0--0---------2---|
D|---2------2----|----2-------0------|
A|-3-------------|3-------3----------|
E|---------------|-------------------|


[Chorus]
[Am]Oooh[F][C][G]
[Am]Oooh[F][C][C][C/B]
[Am]Oooh[F][C][Em]
[F]Oooh[Fm][C][C][C/B]

[Outro]
[Am7] [F] [C] [G]

E|-----------------|-----------------|-----------------|-------------------|
B|-------1---------|-------1-------1-|--------1------1-|-------0-----------|
G|---0-------0-----|-0h2-------2-----|----0------0-----|---0-------0-------|
D|-----2-------2h3-|-----3---3---3---|------2------2---|-----0-------0h2---|
A|-0-------0-------|-----------------|--3------3-------|-------------------|
E|-----------------|-1---------------|-----------------|-3-------3---------|


Now that you're on someone else's shoulders

[Am7] [F] [C] [C/B]

e|-----------------|-----------------|------------------|------------------|
B|-------1---------|-------1-------1-|---------1-------1|-------1-------1--|
G|---0-------0-----|-0h2-------2-----|-------0-----0----|---0-------0------|
D|-----2-------2h3-|-----3---3---3---|--0h2----------2--|-----2-------0----|
A|-0-------0-------|-----------------|--3--------3------|-3-------2--------|
E|-----------------|-1---------------|------------------|------------------|


The winter winds are colder on my own

[Am7] [F] [C] [Em]

e|----------------|-----------------|------------------|-------0-----------|
B|-------1--------|-------1-------1-|--------1-------1-|-------------------|
G|---0-------0----|-0h2-------2-----|------0-----0-----|---0-------0-------|
D|-----2-------2h3|-----3---3---3---|-0h2----------2---|-----2-------0h2---|
A|-0-------0------|-----------------|-3--------3-------|-------------------|
E|----------------|-1---------------|------------------|-0-------0---------|


Maybe we will meet when we get older

[F] [Fm]

e|----------------|----------------|---------------------------------------|
B|--------1------1|------1-------1-|---------------------------------------|
G|-0h2-------2----|----------2-----|-1-------------------------------------|
D|-----3-------3--|----3-------3---|-3-------------------------------------|
A|----------------|----------------|---------------------------------------|
E|-1-------1------|-1--------------|-1-------------------------------------|


Maybe we won't. So I won't say I love you if you don't

[Am7] [F] [C] [C/B]

e|-------------|------------------|-----------------|----------------------|
B|----1--------|-------1----------|------1----------|------1--------1------|
G|-------0-----|-0h2-----2p0---0--|-----------------|-----------0----------|
D|---2-----2h3-|-----3-------3----|--0h2------------|-----2-------0--------|
A|-0-----------|------------------|--3--------------|--3------2------------|
E|-------------|-1----------------|-----------------|----------------------|


And no you don't

[Am7] [F] [C] [Em]

e|-----------------|-----------------|---------------|---------------------|
B|-------1---------|-------1-------1-|------1------1-|-------0-------------|
G|---0-------0-----|-0h2-------2-----|----0----0-----|-----------0---------|
D|-----2-------2h3-|-----3---3---3---|-----------2---|-----2-------0h2-----|
A|-0---------------|-----------------|-3-------------|---------------------|
E|-----------------|-1---------------|---------------|-0-------0-----------|


[F] [Fm] [C]

e|-------------|-------------|-0-------------------------------------------|
B|-------1-----|------1------|-1-------------------------------------------|
G|-0h2------2--|-1-------1---|-0-------------------------------------------|
D|-----3-----3-|-3--3-----3--|-2-------------------------------------------|
A|-------------|-------------|-3-------------------------------------------|
E|-1-----------|-1-----------|---------------------------------------------|

Danh sách hợp âm

Hợp âm: Nervous - Gavin James - cảm âm, tab guitar, ukulele - lời bài hát
Có thể bạn thích