Chord/Tab song: I Know You Know

Chord,Tablature, lyric, sheet, guitar, ukulele song: I Know You Know - ( BANG Questions/Comments/ Concerns: [email protected] Cap...)

4 years ago551Bang (2010) Empires
--
BANG

Questions/Comments/ Concerns: [email protected]

Capo 1
Verse


|-----0-00-00-00----|
|-----0-00-00-20----|
|-----1-11-11-11----| 2x
|-----2-22-22-22----|
|-----0-00-00-00----|
|--0----------------|

Followed By


|-----0-00-00-00----|
|-----0-00-00-20----|
|-----1-11-11-11----| 2x
|-----2-22-22-22----|
|-----2-22-22-22----|
|--0----------------|

Lead Riff


|-----------4--7--4--------|
|---5--7--------------7--5-|
|--------------------------|
|--------------------------|
|--------------------------|
|--------------------------|


Verse
Oh honey, I can feel that we're near it
Can you feel the world slowly moving?

Chorus
[A]I know you know [C#m]that I love you, All ar[B]ound the room
[A]And I'll dream all night to to[C#m]uch you, The way I do[B]
I[A] know you know where I a[C#m]m, When we lose[B] eyes
[A]You can feel me more tha[C#m]n I can. Just lea[B]ve your life[E]

Verse
Now honey you can trick me to feel right
I can't believe I know what you taste like

Chorus

Bridge
[C#m]We were made of, we were [B]made of blood (I don[A]'t know)
We were made of, we were made of blood (don't you know?)
We were made of, we were made of blood (I don't know)
We were made of, we were made of blood (don't you know?)
We were made of, we were made of blood (I don't know)
Don't you feel it? Do you feel it? I don't know
We were made of, we were made of blood (I don't know)
We were made of, we were made of blood (don't you know?)

End Chorus
I know you know that I love you
All around the room
And I'll dream all night to touch you
The way I do

Chords List

Chord: I Know You Know - tab, song lyric, sheet, guitar, ukulele
Maybe you like