Chord/Tab song: How Does It Feel - The Zutons

Chord,Tablature, lyric, sheet, guitar, ukulele song: How Does It Feel - The Zutons - ( how does it feel- the zutons Tabbed By : Grimjaw Tu...)

--

-------------------------------------------------------------------------------

how does it feel- the zutons


-------------------------------------------------------------------------------


Tabbed By : Grimjaw

Tuning:Eadg (norm)

INTRO (0.05)



G|-----------|
D|-----------|
A|-2----5--4-|X4
E|-----------|


VERSE 1 (0.17)


G|--------------------------------------------------|
D|--------------------------------------------------|
A|-2----5--4----2----5--4----2----5--4----2---------|X2
E|---------------------------------------------3--5-|


BRIDGE (0.40)



G|-----------|
D|-----------|
A|-2----5--4-|X4
E|-----------|


VERSE 2 (0.54)



G|--------------------------------------------------|
D|--------------------------------------------------|
A|-2----5--4----2----5--4----2----5--4----2---------|X2
E|---------------------------------------------3--5-|


BRIDGE (1.18)



G|-----------|
D|-----------|
A|-2----5--4-|X4
E|-----------|


CHORUS (1.31)


G|----------------------|
D|----------------------|
A|-2--2[/]4-4-----------|X4
E|-----------4--4[/]7-7-|


VERSE 3 (1.55)



G|---------------|
D|---------------|
A|-2---2-5-5-4-4-|X3
E|---------------|
G|----------------------|
D|----------------------|

A|-2---2/14141414141414-|


E|----------------------|


BREAKDOWN (2.08)


G|-------------------------------------------------------------------------|
D|-------------------------------------------44-3-4--4-33-4--3-77-6-7--6-77|
A|-0-22-0-2--0-22-0-2--0-55-4-5--4-55-4-5--4-------------------------------|
E|-------------------------------------------------------------------------|


G|-----|
D|-6-7-|
A|-----|X2
E|-----|

CHORUS (2.34)


G|----------------------|
D|----------------------|
A|-2--2[/]4-4-----------|X4
E|-----------4--4[/]7-7-|


OUTRO


G|---------------------------------|
D|---------------------------------|
A|-2--2-2---------/7--7-7--7--7-7--|X4
E|---------3--3-3------------------|
G|------------------------------------|
D|------------------------------------| FINI!
A|-7------5-------4----10-----------2-|
E|------------------------------------|


| (/) LEGATO SLIDE (WHERE YOU ONLY PLAY THE FIST NOTE)
| / slide up
| \ slide down
| h hammer-on
| p pull-off
| ~ vibrato
| + harmonic
| x Mute note

Chords List

Chord: How Does It Feel - The Zutons - tab, song lyric, sheet, guitar, ukulele
Maybe you like