Chord/Tab song: Fuck Authority - Wasted Youth

Chord,Tablature, lyric, sheet, guitar, ukulele song: Fuck Authority - Wasted Youth - ( Fuck Authority - Wasted Youth Reagan's In Tabbed by: ...)

3 months ago20 Wasted Youth
--

-------------------------------------------------------------------------------

Fuck Authority - Wasted Youth
Reagan's In


-------------------------------------------------------------------------------

Tabbed by: axeslash
Email: holmzito@yahoo.com

Tuning: EADGBE



e|-----------------------------------------------------|
B|-----------------------------------------------------|
G|-----------------------------------------------------|
D|-4-4-4-4-4-4-7-7-7-7-7-7-7-7-------------------------|
A|-2-2-2-2-2-2-5-5-5-5-5-5-5-5--4--5--4--5--4--5--4--5-|
E|------------------------------2--3--2--3--2--3--2--3-| x6
[x--x--x--x--x--x--x--x]
e|-------------------------------------------------------|
B|-------------------------------------------------------|
G|-------------------------------------------------------|
D|-4-4-4-4-4-4-----------------------------7-7-7-7-7-7-7-|
A|-2-2-2-2-2-2-5-5-5-5-5-5-5-5-4-4-4-4-4-4-5-5-5-5-5-5-5-|
E|-------------3-3-3-3-3-3-3-3-2-2-2-2-2-2---------------| x3
e|-------------------------------------------------| e|---------|
B|-----------------8-8-8-8-8-8-8-8-----------------| B|---------|
G|-9-9-9-9-9-9-9-9-7-7-7-7-7-7-7-7-7-7-7-7-7-7-7-7-| G|-9-9-9-9-|
D|-9-9-9-9-9-9-9-9-5-5-5-5-5-5-5-5-7-7-7-7-7-7-7-7-| D|-9-9-9-9-|
A|-7-7-7-7-7-7-7-7-----------------5-5-5-5-5-5-5-5-| A|-7-7-7-7-|
E|-------------------------------------------------| x2 E|---------| x3
e|-7-7-7-7-7-7-10--10-10-10-10-10-10-5-5-5-5-5-5-5-5-5-5-5-5-5-5-5-5-|
B|-7-7-7-7-7-7-10--10-10-10-10-10-10-5-5-5-5-5-5-5-5-5-5-5-5-5-5-5-5-|
G|-------------------------------------------------------------------|
D|-------------------------------------------------------------------|
A|-------------------------------------------------------------------|
E|-------------------------------------------------------------------| x3
e|-7-7-7-7-7-7-10--10-10-10-10-10-10-5-5-5-5-5-5-5-5-5-5-5-5-5\0-0-0-|
B|-7-7-7-7-7-7-10--10-10-10-10-10-10-5-5-5-5-5-5-5-5-5-5-5-5-5\0-0-0-|
G|-------------------------------------------------------------------|
D|-------------------------------------------------------------------|
A|-------------------------------------------------------------------|
E|-------------------------------------------------------------------|

( Tab from: http://www.guitartabs.cc/tabs/w/wasted_youth/fuck_authority_tab.html )


e|-----------------------------------------------------|
B|-----------------------------------------------------|
G|-----------------------------------------------------|
D|-4-4-4-4-4-4-7-7-7-7-7-7-7-7-------------------------|
A|-2-2-2-2-2-2-5-5-5-5-5-5-5-5--4--5--4--5--4--5--4--5-|
E|------------------------------2--3--2--3--2--3--2--3-| x4
[x--x--x--x--x--x--x--x]
e|-------------------------------------------------------|
B|-------------------------------------------------------|
G|-------------------------------------------------------|
D|-4-4-4-4-4-4-----------------------------7-7-7-7-7-7-7-|
A|-2-2-2-2-2-2-5-5-5-5-5-5-5-5-4-4-4-4-4-4-5-5-5-5-5-5-5-|
E|-------------3-3-3-3-3-3-3-3-2-2-2-2-2-2---------------| x3
e|-------------------------------------------------| e|---------|
B|-----------------8-8-8-8-8-8-8-8-----------------| B|---------|
G|-9-9-9-9-9-9-9-9-7-7-7-7-7-7-7-7-7-7-7-7-7-7-7-7-| G|-9-9-9-9-|
D|-9-9-9-9-9-9-9-9-5-5-5-5-5-5-5-5-7-7-7-7-7-7-7-7-| D|-9-9-9-9-|
A|-7-7-7-7-7-7-7-7-----------------5-5-5-5-5-5-5-5-| A|-7-7-7-7-|
E|-------------------------------------------------| x2 E|---------| x3
e|-7-7-7-7-7-7-10--10-10-10-10-10-10-5-5-5-5-5-5-5-5-5-5-5-5-5-5-5-5-|
B|-7-7-7-7-7-7-10--10-10-10-10-10-10-5-5-5-5-5-5-5-5-5-5-5-5-5-5-5-5-|
G|-------------------------------------------------------------------|
D|-------------------------------------------------------------------|
A|-------------------------------------------------------------------|
E|-------------------------------------------------------------------| x3
e|-7-7-7-7-7-7-10--10-10-10-10-10-10-5-5-5-5-5-5-5-5-5-5-5-5-5\0-0-0-|
B|-7-7-7-7-7-7-10--10-10-10-10-10-10-5-5-5-5-5-5-5-5-5-5-5-5-5\0-0-0-|
G|-------------------------------------------------------------------|
D|-------------------------------------------------------------------|
A|-------------------------------------------------------------------|
E|-------------------------------------------------------------------|
e|-----------------------------------------------------| e|---|
B|-----------------------------------------------------| B|---|
G|-----------------------------------------------------| G|---|
D|-4-4-4-4-4-4-7-7-7-7-7-7-7-7-------------------------| D|-4-|
A|-2-2-2-2-2-2-5-5-5-5-5-5-5-5--4--5--4--5--4--5--4--5-| A|-2-|
E|------------------------------2--3--2--3--2--3--2--3-| x4 E|---|
[x--x--x--x--x--x--x--x]


|(x) palm mute
| / slide up
| \ slide down
| h hammer-on
| p pull-off
| ~ vibrato
| + harmonic
| x Mute note

Chords List

Chord: Fuck Authority - Wasted Youth - tab, song lyric, sheet, guitar, ukulele
Maybe you like