Chord/Tab song: Eric the Red - Rebellion

Chord,Tablature, lyric, sheet, guitar, ukulele song: Eric the Red - Rebellion - ( Eric The Red - REBELLION REBELLION Eric The Red Histo...)

--

-------------------------------------------------------------------------------

Eric The Red - REBELLION


-------------------------------------------------------------------------------

REBELLION
Eric The Red
History Of The Vikings Part I: The Sagas Of Iceland (2005)
Tabbed by: malpka

Tuning: standard

INTRO:
[FIG: 1]
(4x)


e|--------------------------|--------------------------|
B|--------------------------|--------------------------|
G|--------------------------|--------------------------|
D|--2-----------------------|---------2~---------------|
A|--2-----------------------|---------3~---------------|
E|--0-00--0-00--0-00--0-00--|--0-000-------------------|

| (sim...) | |


e|--------------------------|---------5~---------------|
B|--5--8-8---5-7---5--8-8---|--5--7--------------------|
G|--------------------------|--------------------------|
D|--------------------------|--------------------------|
A|--------------------------|--------------------------|
E|--------------------------|--------------------------|
e|--------------------------|--------------------------|
B|--------------------------|--------------------------|
G|--------------------------|--------------------------|
D|--2-----------------------|------3/5-3~--------------|
A|--2-----------------------|------3/5-3~--------------|
E|--0-00--0-00--0-00--0-00--|--0-x-1/3-1~--------------|

| (sim...) | |


e|--------------------------|--------------------------|
B|--5--8-8---5-7---5--8-8---|--5-----------------------|
G|--------------------------|-------6--4~--------------|
D|--------------------------|--------------------------|
A|--------------------------|--------------------------|
E|--------------------------|--------------------------|


VERSE:
[FIG: 2]
Away from Iceland's shores I must


e|--------------------------|--------------------------|
B|--------------------------|--------------------------|
G|--------------------------|--------------------------|
D|--2-----------------------|--7-----------------------|
A|--2-----------------------|--9-----------------------|
E|--0-00--0-00--0-00--0-00--|--------------------------|


The King says I must go


e|--------------------------|--------------------------|
B|--------------------------|--------------------------|
G|--------------------------|--------------------------|
D|--7-----------------------|--5-----------------------|
A|--9-----------------------|--7-----------------------|
E|----00--0-00--0-00--0-00--|--------------------------|


Some neighbors asked a fight with me


e|--------------------------|--------------------------|
B|--------------------------|--------------------------|
G|--------------------------|--(5)---------------------|
D|--5-----------------------|-2(5)---------------------|
A|--7-----------------------|-3(3)---------------------|
E|----00--0-00--0-00--0-00--|--------------------------|


And I laid their bodies low


e|--------------------------|--------------------------|
B|--------------------------|--------------------------|
G|--(5)---------------------|--(7)---------------------|
D|-2(5)---------------------|-4(7)---------------------|
A|-3(3)---------------------|-5(5)---------------------|
E|----00--0-00--0-00--0-00--|--------------------------|


Now my face is in the wind again


e|--------------------------|--------------------------|
B|--------------------------|--------------------------|
G|--(7)---------------------|--------------------------|
D|-4(7)---------------------|--7-----------------------|
A|-5(5)---------------------|--9-----------------------|
E|----00--0-00--0-00--0-00--|--------------------------|


And friends are by my side


e|--------------------------|--------------------------|
B|--------------------------|--------------------------|
G|--------------------------|--------------------------|
D|--7-----------------------|--5-----------------------|
A|--9-----------------------|--7-----------------------|
E|----00--0-00--0-00--0-00--|--------------------------|


The Green Land we are looking for


e|--------------------------|--------------------------|
B|--------------------------|--------------------------|
G|--------------------------|--(5)---------------------|
D|--5-----------------------|-2(5)---------------------|
A|--7-----------------------|-3(3)---------------------|
E|----00--0-00--0-00--0-00--|--------------------------|


And we trust in Odin's might


e|--------------------------|--------------------------|
B|--------------------------|--------------------------|
G|--(5)---------------------|--(7)---------------------|
D|-2(5)---------------------|-4(7)---------------------|
A|-3(3)---------------------|-5(5)---------------------|
E|----00--0-00--0-00--0-00--|--------------------------|


PRE-CHORUS:
[FIG: 3]
Come join me now I know the way, We'll be free


e|--------------------------|--------------------------|
B|--------------------------|--------------------------|
G|--------0--------0--------|--0--------0--------------|
D|-----2--------2--------2--|--------2--------5-----7--|
A|--3--------3--------3-----|-----3--------3-----5-----|
E|--------------------------|--------------------------|


No King to rule us down, Ride the sea


e|--------------------------|--------------------------|
B|--------------------------|--------------------------|
G|--------0--------0--------|--0--------0--------------|
D|-----2--------2--------2--|--------2--------5-----7--|
A|--3--------3--------3-----|-----3--------3-----5-----|
E|--------------------------|--------------------------|
e|--------------------------|--------------------------|
B|--------------------------|--------------------------|
G|--------12~---------11~---|--------12~---------11~---|
D|--------12~---------11~---|-0h2----12~---------11~---|
A|--------------------------|-0h2----------------------|
E|--0-0-0-------0-0-0-------|----0-0-------0-0-0-------|


Man the boats and hoist the sails, All hands on deck


e|--------------------------|--------------------------|
B|--------------------------|--------------------------|
G|--------0--------0--------|--0--------0--------------|
D|-----2--------2--------2--|--------2--------5-----7--|
A|--3--------3--------3-----|-----3--------3-----5-----|
E|--------------------------|--------------------------|


There's land to find I know, Don't look back


e|--------------------------|--------------------------|
B|--------------------------|--------------------------|
G|--------0--------0--------|--0--------0--------------|
D|-----2--------2--------2--|--------2--------5-----7--|
A|--3--------3--------3-----|-----3--------3-----5-----|
E|--------------------------|--------------------------|
e|--------------------------|--------------------------|
B|--------------------------|--------------------------|
G|--------12~---------11~---|---------------4----------|
D|--------12~---------11~---|-0h2------5--2-4----------|
A|--------------------------|-0h2--0-0-3--0-2-222-2222-|
E|--0-0-0-------0-0-0-------|--------------------------|


CHORUS:
[FIG: 4]
Through the wind and storm I'll carry on


e|------------------------|------------------------|
B|------------------------|------------------------|
G|------------------------|------------------------|
D|-2--2-2---------------2-|-5----------------------|
A|-2--2-2---------------2-|-5----------------------|
E|-0--0-0---0-00--0-00--0-|-3----3-33--3-33--3-33--|


To a new land where the sun will dawn


e|------------------------|------------------------|
B|------------------------|------------------------|
G|-7-----7-----7-----7----|-7-5-----5--------------|
D|-7-----7-----7-----7----|-7-5-----5--------------|
A|-5-5-5-5-5-5-5-5-5-5-5-5|-5-3-3-3-3-----------x\-|
E|------------------------|---------3-----------x\-|



In the wind and storm I'll raise my head


e|------------------------|------------------------|
B|------------------------|------------------------|
G|------------------------|------------------------|
D|-2--2-2---------------2-|-5----------------------|
A|-2--2-2---------------2-|-5-------------------5\-|
E|-0--0-0---0-00--0-00--0-|-3----3-33--3-33--3-33\-|


Eric The Red


e|------------------------|------------------------|
B|------------------------|------------------------|
G|------------------------|------------------------|
D|------------------------|------3/5--3~-----------|
A|------------------------|-2----3/5--3~-----------|
E|-0-00--0-00--0-00--0-00-|-0--0-1/3--1~-----------|


BRIDGE:
[FIG: 1]
(x2)

VERSE:
[FIG: 2]
My son I see the fire in your eyes
As I felt when I was young.
And I've listened to the Skalds and tales,
You've gotta go as I have done.

But it's your way, Leif Eriksson,
The Red has come too old.
The Vinland you will find I know,
Ride the wind, be strong and bold.

PRE-CHORUS:
[FIG: 3]
Come join me now, I know the way...We'll be free
No King to rule us down...Ride the sea!

Man the boats and hoist the sails, All hands on deck
There's land to find I know...Don't look back!

CHORUS:
[FIG: 4]
Through the wind and storm I'll carry on
To a new land where the sun will dawn
In the wind and storm I'll raise my head
Eric The Red

BRIDGE:
[FIG: 1]

SOLO:
[FIG: 2 sim...]

[FIG: 3 sim...]

CHORUS:
[FIG: 4]
x4

Fade


| / slide up
| \ slide down
| h hammer-on
| p pull-off
| ~ vibrato
| + harmonic
| x Mute note

Chords List

Chord: Eric the Red - Rebellion - tab, song lyric, sheet, guitar, ukulele
Maybe you like