Chord/Tab song: Dancing in the Storm - Boom Crash Opera

Chord,Tablature, lyric, sheet, guitar, ukulele song: Dancing in the Storm - Boom Crash Opera - ( written by Peter Farnan and Richard Pleasance from the al...)

3 months ago19 Boom Crash Opera
--
written by Peter Farnan and Richard Pleasance
from the album "These Here Are Crazy Times"

Transcribed by Daniel Schaumann

INTRO:

[1] [2] [3] [4] [1] [2] [3] [4]

E|----------------------------------------------------------------|
B|------3---------------3---------------3---------------3---------|
G|----0-----0---------0-----0---------0-----0---------0-----0-----|
D|4h5---------4---4h5---------4---4h5---------4---4h5---------4---|
A|----------------------------------------------------------------|
E|----------------------------------------------------------------|


The verses and short breaks between verses are picked as follows:
(Lyrics included as a timing indication)

[G] [Em]
[1] [2] [3] [4] [1] [2] [3] [4]

E|----------------0-----------------------------------------------|
B|------3--------------3--------------3----------------3----------|
G|----0-----0-----------------------0----------------0------------|
D|4h5---------5-----5-----5---4---2-------2---0-------------------|
A|------------------------------------------------2-------2---0---|
E|----------------------------------------------------------------|

Lying in the dark I know you are awake, I will

[C] [G] [Em]
[1] [2] [3] [4] [1] [2] [3] [4]

E|----------------0-------------------------------0---------------|
B|------3--------------3--------------3-----------0---------------|
G|----0-----0-----------------------0-------------0---------------|
D|------------------------------------------------2---------------|
A|3-----------3-----3-----3---2-------------------2---------------|
E|--------------------------------3-------3---2---0---------------|

not give in, I will not give in.

( Tab from: http://www.guitartabs.cc/tabs/b/boom_crash_opera/dancing_in_the_storm_tab.html )
[G]Lying in the dark I [Em]know you are [Bm]awake,
I will [C]not give in, I will [G]not give [Em]in.
[G]Pulling faces and ad[Em]mitting not a [Bm]thing,
I will [C]not give in, I will [G]not give [Em]in.

[G]Lightning flash and every[Em]thing is sharp and [Bm]clear,
I can [C]see it all, I can [G]see it [Em]all.
[G]And as the thunder roars we're [Em]raising up a [Bm]storm,
We can [C]shout it down, we can [G]shout it [Em]down.

[Am]Gone are the [G/B]days of compl[C]acen[G/B]cy,
[Am]Gone are the [G/B]nights of ind[D]ifference.

CHORUS:
Here we [G]go, here we [Em]go for one more [Bm]turn,
We can [C]shake, we can [G]shake the trees and [Em]earth,
We can [G]spin, we can [Em]spin and not fall [Bm]down,
Hold on [C]tight, we can [G]both become un[Em]wound,
You and [Am]I, going [G/B]out and we're [C]dancing [D]in the [G]storm.

Honestly, my foot is always in my mouth,
Still the words come out, the words come out.
Not the truth but I have nothing to confess,
Just a hint of doubt, just a hint of doubt.

Gone are the days of the sideway step,
Gone are the nights with no partner.

REPEAT CHORUS

REPEAT INTRO OVER CHORDS:

[G] [/] [/] [/] [Em] [/] [/] [/] [C] [/][/][/][G][/][/][/]
[Em] [/] [/] [/] [Bm] [/] [/] [/] [C] [/][/][/][G][/][/][/]

[F] [Em] [C] [G]

In the sto-o-o-orm, in the sto-o-o-orm

[F] [Em] [C] [G]

In the sto-o-o-orm, in the sto-o-o-orm


[F]Gone are the days of compl[Em]acency,
[C]Gone are the nights with no [G]partner.
[F]Gone is the way that we [Em]used to be,
Now the [Am]corner is [G/B]turned, h[C]eaven knows we've [D]learned

REPEAT CHORUS
ADLIB CHORUS TILL END

Chords List

Chord: Dancing in the Storm - Boom Crash Opera - tab, song lyric, sheet, guitar, ukulele
Maybe you like