Chord/Tab song: Confusion - The Zutons

Chord,Tablature, lyric, sheet, guitar, ukulele song: Confusion - The Zutons - ( Confusion - The Zutons I've got most of it but couldn't ...)

--
Confusion - The Zutons

I've got most of it but couldn't tab out the chorus cos there's about 3 guitars going on
at the same time. If you can tab out the chorus please send it to me or if you have any
corrections I'm twazzard@hotmail.com
Lol xxx

Verse 1:
[A] [A7] [D] [A]

e|-----0---|-----3---|-----2---|-----0---|
B|---2---2-|---2---2-|---3---3-|---2---2-|
G|-2-------|-2-------|-2-------|-2-------| repeat
D|---------|---------|---------|---------|
A|---------|---------|---------|---------|
E|---x4----|---x4----|----x4---|---x4----|


[A]It's funny how it tears me apart
[A7]First it breaks your head then your heart
[D]I should've loved you better from the st[A]art
[A]It's chewin' at my bones and my brains
[A7]It's workin' through the flesh that remains
[D]Why can't this feelin' leave me and just fade a[A]way

Chorus:
From day one I led you on,
I'm sorry girl but I can't stay
Things have changed they're not the same,
Now I must walk the other way

A (x8)

Verse 2: (same as verse 1)
[A]Confusion raining down from up high
[A7]And all the time you ask yourself why
[D]Why can't you make decisions, Can't make up your m[A]ind
[A]Although you're trying hard to forget
[A7]The reason why you feel so misled
[D]Now come on and forgive me, I'll help you ac[A]cept

(chorus)

Middle:

Sax part


e|----------------------0------0-3-22-00-----------|
B|-3-22-3-22-3-22---2-3--3-2-3-----------33-2-3-22-|
G|-------------------------------------------------|
D|-------------------------------------------------|
A|-------------------------------------------------|
E|-------------------------------------------------|


guitar solo (im not sure if this is right)


e|-9p7-5-9p7-5-9p7-5-9p7-5p3h5-|
B|-----------------------------|
G|-----------------------------|
D|-----------------------------|
A|-----------------------------|
E|-----------------------------|
e|-17-17-17-15-15-15-14-14-14-12-12-10/12-10/12--|
B|-----------------------------------------------|
G|-----------------------------------------------|
D|-----------------------------------------------|
A|-----------------------------------------------|
E|-----------------------------------------------|


(Chorus)

Outro
A (x8)

Chords List

Chord: Confusion - The Zutons - tab, song lyric, sheet, guitar, ukulele
Maybe you like