Chord/Tab song: America - Santana

Chord,Tablature, lyric, sheet, guitar, ukulele song: America - Santana - ( Transcribed by Juan Meja Mancilla (simplementejonas@hotma...)

3 months ago37 Other Songs Santana
--
Transcribed by Juan Meja Mancilla (simplementejonas@hotmail.com)
Traa & Wuv

Gtr I (E A D G B E) - 'Carlos Santana - Lead w/dist'
Gtr II (D G C F A D) - 'Marcos Curiel - Rhythm w/dist'
Gtr III (D G C F A D) - 'Marcos Curiel - Lead w/dist and Whammy pedal 2 octaves above pitch'

Intro
Q106
[4/4] Gtr I
~~~~~~~~~~~~~~~~~~~~~~
H E E E E +H. +E. S


|-------------------|-----------------------|
|-------------------|-----------------------|
|-----------------9-|-(9)-----------(9)---7-|
|---------------7---|-----------------------|
|-------------7-----|-----------------------|
|-------------------|-----------------------|

|
| Gtr II
| E E E E +E E E E +E E E E E E E E


|-------------------|-----------------------|
|-------0-(0)-------|-----2-----2-----------|
|-----4-------4-----|-------4-----4---------|
|---4-----------4---|---------4------4------|
|-2---------------0-|-(0)---------------0---|
|-------------------|-----------------------|

|-Rhy Fig 1

~~~~~ ~~
|--3--|
+Q +E E +H S S S S H S S S E


|-------------------------|-------------------------------------|
|-------------------------|-------------------------------------|
|-(7)---(7)s12-(12)-------|-14p12------------------------------|
|-------------------------|--------14p12-14---------12h14s12-10-|
|-------------------------|-------------------------------------|
|-------------------------|-------------------------------------|

|
| E E E E +E E E E +E E E E +E E E E


|-------------------------|-------------------------------------|
|------------0--(0)-------|-------------------------------------|
|--------4----------4-----|--------------------------4--------4-|
|-----4---------------4---|---------------4---------------------|
|--2----------------------|---------2-------------2-------------|
|-----------------------3-|-(3)-------------0-(0)---------------|

end Rhy Fig 1-|

w/Rhy Fig 1 x3
~~ ~~ ~~


|--3--| |-3--|

Q S S S E +E E S T T T S S S S Q a E E E Q


|-----------------------------------------|-----------------------------|
|-----------------------------------------|-----------------------------|
|-----------------------------------------|-----------------------------|
|-12---14s12p10-12-(12)-10-9h12p10p9-10p9-|-10p9---------------12-14---|
|-----------------------------------------|-------12---12s14-15---------|
|-----------------------------------------|-----------------------------|


E E S S S S S S S S S S S T T


|----------12-------12-------12--------12-------12-------12-15p12-|
|----15b17----15b17----15b17-----15b17----15b17----15b17----------|
|-14--------------------------------------------------------------|
|-----------------------------------------------------------------|
|-----------------------------------------------------------------|
|-----------------------------------------------------------------|


Q. S S S E. E E


|-15tr12-----15-15-15--15b17---15b17-15b17|
|---------------------------------------------|
|---------------------------------------------|
|---------------------------------------------|
|---------------------------------------------|
|---------------------------------------------|


~~~~~~~~
+Q Q E S S S S S S S S S S +E E Q S S S S


|-(15)r---15b17---15b17-15-12-15p12----12-|-----12------------------------------|
|-----------------------------------15----|-15-----15-13-(13)h15-------13-13-13-|
|-----------------------------------------|-------------------------------------|
|-----------------------------------------|-------------------------------------|
|-----------------------------------------|-------------------------------------|
|-----------------------------------------|-------------------------------------|


~~~~~~~~~~~
S E. E E +S S a S S S S a E E S S S S S S S S E S S S S


|---------------------------------------------|---------------------------------------------|
|-15------------------------------------------|---------------------------------------------|
|----14----14-14-(14)p12----------------------|---------------------------------------------|
|------------------------13p12----------12h14-|-12-----12-14-12-10-12-10--------10-------10-|
|------------------------------15-12-15-------|-----15--------------------12-10----12-10----|
|---------------------------------------------|---------------------------------------------|


~~~
E. S Q Q E S S E. S S S E S S S S Q


|-----------------------------|------------------------------------|
|-----------------------------|-------------------12-13p12---------|
|-----------------------12-14-|-14p12-14-14-14----------12------|
|-----------------------------|-------------------------------14---|
|-12p10-12\\-----------------|------------------------------------|
|-----------------------------|------------------------------------|


E S S E E e e e E +E +E Q Q S S S S


|----------------------------|--------------------------------12----------||
|------------12-13--12-13-15-|-(15)b17(15)r-15b17---15b17------13-13-13-||
|---14-14-14-----------------|--------------------------------------------||
|----------------------------|--------------------------------------------||
|----------------------------|--------------------------------------------||
|----------------------------|--------------------------------------------||


Verse 1
\\0.5____|
~~~ ~~
S S Q. H E E +Q +S E. Q Q T T E.S S E Q


|----------------------|---12-----(12)--(12)-12\\-------|--------------------|
|-15-------------------|---13-----(13)--(13)-13\\-------|----5---------------|
|----14-14\\------------|-------------------------------|------7p5h7---------|
|----------------------|-------------------------------|----------7-0-------|
|----------------------|-------------------------------|--------------------|
|----------------------|-------------------------------|--------------------|

|
| Q Q E E E E Q Q E E E E Q Q E E E E


|----------------------|-------------------------------|--------------------|
|----------------------|-------------------------------|--------------------|
|--4-------------4---4-|-2-----------------------2---2-|--------------------|
|--4-------------4---4-|-x-----------------------x---x-|-2------------2---2-|
|--2-------------2---2-|-0-----------------------0---0-|-2------------2---2-|
|----------------------|-------------------------------|-0------------0---0-|

|-Rhy Fig 2

~
E S S S S a E S S S S S S E


|-----------------------------------|
|-----------------------------------|
|-------5-5-------------------------|
|---x-7-----5h7-----7p5-------------|
|----------------7--------7p5-----|
|-------------------------------8p5-|

|
| ~~~~~~
| |--3--|
| Q E a E +E S S S E E


|-----------------------------------|
|-----------------------------------|
|---------------------------------0-|
|-5---------5s7-(7)---5h7p5s4---0-|
|-5---------------------------------|
|-3---------------------------------|


~~~~
H Q e E +E +Q. H


|---------------------|-----------------------|
|-----------12-12b13|(12)r(12)-------------|
|---------------------|-----------------------|
|---------------------|-----------------------|
|---------------------|-----------------------|
|---------------------|-----------------------|

|
| Q Q E E E E Q Q E E E E


|---------------------|-----------------------|
|---------------------|-----------------------|
|-4-------4-----4-----|---2------------2---2--|
|-4-------4-----4-----|---x------------x---x--|
|-2-------2-----2-----|---0------------0---0--|
|---------------------|-----------------------|


Q E E +H


|-------------------------|
|------15b17(15)r-------|
|-------------------------|
|-------------------------|
|-------------------------|
|-------------------------|

|
| Q Q E E E E


|-------------------------|
|-------------------------|
|-------------------------|
|-2-----------------2---2-|
|-2-----------------2---2-|
|-0-----------------0---0-|


~~~~~~~~~~~


|--3--| |---3----|

e E s e e E S S S S S S E a H +E e e E


|-15----------------------12---------------------------|-------------------12-----|
|-------15b16-15-13----15----15b16-15--13----15-13-----|----------------------15--|
|-----------------------------------------14--------12-|-12h14-----(14)-14--------|
|------------------------------------------------------|--------------------------|
|------------------------------------------------------|--------------------------|
|------------------------------------------------------|--------------------------|

|
| S E. S E. S E. S E.


|------------------------------------------------------|
|------------------------------------------------------|
|-----------------------------------2------------------| w/Rhy Fig 2
|--x-5------------x-x---------x-----2---------x--x-----|
|--x-5------------x-x---------x-----0---------x--x-----|
|--x-3------------x-x---------x---------------x--x-----|

end Rhy Fig 2-|

+E Q E E e E E +E E Q +Q +Q


|----------------15----------|--------------------------------|
|-(15)-13-----------15b17-15-|-(15)-13-15b17(15)---(15)r---|
|-----------14---------------|--------------------------------|
|----------------------------|--------------------------------|
|----------------------------|--------------------------------|
|----------------------------|--------------------------------|



S S S S S S S S S S S S Q


|-------12-12-------12---------12-12-12--12-12---12---15b17---|
|-15b17-------15b17----15b17----------------------------------|
|-------------------------------------------------------------|
|-------------------------------------------------------------|
|-------------------------------------------------------------|
|-------------------------------------------------------------|


Gtr III
~~~~~~ ~~~
H. E E S E. +H E E


|--------------------|-------------------|
|--------------------|-------------------|
|--6-------------6-7-|-7s8--(8)------7-6-|
|--------------------|-------------------|
|--------------------|-------------------|
|--------------------|-------------------|

|-Riff A
|
| Gtr I
| Q Q H W


|-15b17\\-------------|-------------------|
|--------------------|-------------------|
|--------------------|-------------------|
|--------------------|-------------------|
|--------------------|-------------------|
|--------------------|-------------------|


~~ ~~
H. E E H. +Q


|----------------|--------------------||
|----------------|--------------------||
|-7----------6-4-|-6------------(6)\\--||
|----------------|--------------------||
|----------------|--------------------||
|----------------|--------------------||

end Riff A-|

Chorus
w/Rhy Fig 1 x2
Gtr I
~~~~~~~~~~~~~~~~~~~~~~~~~~~ ~~~
a H +Q. E +H. E E


|-------------------------|----------------12----|
|----------------------12-|-(12)--------------13-|
|-12h14-------(14)--------|----------------------|
|-------------------------|----------------------|
|-------------------------|----------------------|
|-------------------------|----------------------|


~~~~~~
+H +Q E E +E e e e S S S S S S E


|-----------------------------|----------------12--------------------|
|-(13)-------(13)\\-----15b17|(15)r-15-13-15-----15-13----15-13----|
|-----------------------------|--------------------------12-------14-|
|-----------------------------|--------------------------------------|
|-----------------------------|--------------------------------------|
|-----------------------------|--------------------------------------|


~~~~~~~~~~~~~~ ~~~~~~~~~~~~~~~~~~~~ ~~~
H +S S S S E E +H +E E E E


|------------------------------|--------------------------|
|---------------------------12-|-(12)-------(12)----12-13-|
|-14-------(14)p12-------14----|-----------------14-------|
|------------------14-12-------|--------------------------|
|------------------------------|--------------------------|
|------------------------------|--------------------------|


~~~~~~ TP TP
+Q. E +E E E E +E S S Q +E +E E E


|------------------12-------12-|-(12)-------12-15b16(15)-(15)r-15b17-15b17--||
|-(13)-----15-(15)----15b17----|------15b17-------------------------------------||
|------------------------------|------------------------------------------------||
|------------------------------|------------------------------------------------||
|------------------------------|------------------------------------------------||
|------------------------------|------------------------------------------------||


Verse 2
w/Rhy Fig 2
~~~~~~~~~~~~
Q +E. +S e E Q


|-15b17(15)-(15)p12-------|
|----------------------------|
|----------------------------|
|----------------------------|
|----------------------------|
|----------------------------|


|-3-| |-3-|
E e E e e E S S S S S S S a S E. Q H


|-----------------------------|--------------------|
|-------8-5-------------------|--------------------|
|-----------7b9-7-5---7p5-----|--------------------|
|-------------------7-----7p5-|--------------------|
|---0-------------------------|-6p5----------------|
|-----------------------------|-----8--------------|
|----3----|

E S +S +S S S S S S S S S S E.


|-----------------------------5------------------|
|------------------------5-5-----8-5-------------|
|---7b9(7)r(7)p5-7b9-----------------8---7-5s|
|------------------------------------------------|
|------------------------------------------------|
|------------------------------------------------|


~~ ~~~
Q +Q Q E E +Q +E S S a S S E S E.


|-------------------------|----------------------------------------|
|-------------------------|----------------------------------------|
|-14--(14)\\--------14b17|(14)r(14)-14-12-----------------------|
|-------------------------|------------------13p12-------14--------|
|-------------------------|------------------------15-12----15\\----|
|-------------------------|----------------------------------------|



~~
W E S S S S E S S S S a S S E


|---------------|---------------------------------------------------|
|---------------|------------15-------------------------------------|
|---------------|------14b16----14-12--14-14-12--14-12--------------|
|---------------|--------------------------------------13p12--------|
|---------------|--------------------------------------------15--12-|
|---------------|---------------------------------------------------|


Rhy Fig 1 (1st 4 bars only) + Riff A


Chorus
w/Rhy Fig 1 x2
Gtr I
~~~~~~~~~~~~~ ~~~~~~~~~~~~~~~~~~~~ ~~~
[a] [H] [+E] [E] [E] [E] [+H] [+E] [E] [E] [E]

|---------------------------|--------------------------|
|------------------------12-|-(12)-------(12)----12-13-|
|-12h14-------(14)-12-14----|-----------------14-------|
|---------------------------|--------------------------|
|---------------------------|--------------------------|
|---------------------------|--------------------------|


~~~~~~ ~~~~~~
+Q. e e e e S +S +E e e e e E +S S S S


|-----------------------------------|----------------15------------------------|
|-(13)-----15-13--15-13-15b17(15)-|-(15)r-15-13-15-----15b17(15)r-13s12----|
|-----------------------------------|---------------------------------------12-|
|-----------------------------------|------------------------------------------|
|-----------------------------------|------------------------------------------|
|-----------------------------------|------------------------------------------|


~~~~~~~~~~~~~~ ~~~~~~~~~
H +S S E E E +H. S S S S


|---------------------------|-------------------------12-|
|------------------------12-|-(12)--------------12-13----|
|-14-------(14)p12----14----|----------------14----------|
|------------------14-------|----------------------------|
|---------------------------|----------------------------|
|---------------------------|----------------------------|


~~
Q E E H Q. +E +E S S S S S S


|---------12-12tr15-------|-15b17(15)-(15)r-15-12----------------||
|-13---15-----------------|-----------------------------15b17-15-13----||
|-------------------------|-----------------------------------------14-||
|-------------------------|--------------------------------------------||
|-------------------------|--------------------------------------------||
|-------------------------|--------------------------------------------||


Interlude
~~~
S S Q. +H W W H E E E E


|---------------------|----------|----------|--------------|
|-15-13---------------|----------|----------|--------------|
|-------14----(14)----|----------|----------|------------9-|
|---------------------|----------|----------|----------7---|
|---------------------|----------|----------|--------7-----|
|---------------------|----------|----------|--------------|

|
| W W W W


|---------------------|----------|----------|--------------|
|---------------------|-0--------|----------|--------------|
|--4------------------|-4--------|----------|--------------|
|--4------------------|-4--------|-5--------|-4------------|
|--2------------------|-0--------|-5--------|-4------------|
|---------------------|----------|-3--------|-2------------|


~~~ ~~~~~~~~ ~~
+H +E E E E +Q. E +E. S +E E S S Q. +Q Q


|---------------------|-------------------------|------------------------|
|---------------------|-------------------------|------------------------|
|-(9)-------(9)---9-7-|-(7)-----5-(5)s4-(4)-4h|5-4--------------------|
|---------------7-----|-------------------------|-----7------(7)\\--------|
|---------------------|-------------------------|------------------------|
|---------------------|-------------------------|------------------------|

|
| E E E E +E E E E +E E E E +E E E E E E E E +E E E E


|---------------------|-------------------------|------------------------|
|---------0-(0)-------|---------0-(0)-----------|------------------------|
|-------4-------4-----|-------4-------4---------|----------0-(0)---------|
|-----4-----------4---|-----4--------------4----|--------5--------5------|
|--2----------------0-|-(0)---------------------|-----5-------------5----|
|---------------------|-----------------------0-|-3-------------------0--|


S S S S S S S S S S S S S S E


|----------------------------------|
|----------------------------------|
|----------------------7-7-7-9-9-9-|
|-7-7-7-9-9-9-10-10-10-------------|
|----------------------------------|
|----------------------------------|

|
| E E E E E E E E


|----------------------------------|
|----------------------------------|
|--------------0-------------------|
|-4---4---4----4-----4---4---4---4-|
|-4---4---4----------4---4---4---4-|
|-2---2---2----------2---2---2---2-|

|-Rhy Fig 3 end Rhy Fig 3-|

w/Rhy Fig 3 x2
TP TP TP TP
S S S S S S S S S E. Q H. E E


|-------------------------10-10S4S|7S16S17--||
|-10-10-10-12-12-12-13-13---------4S|7S16S17--||
|---------------------------------4S|7S16S17--||
|-------------------------------------|--------------------||
|-------------------------------------|--------------------||
|-------------------------------------|--------------------||


Guitar Solo
w/Rhy Fig 1 x7
Q S S S S S S S S S S S S


|---------17-------17-------17--------17-------17-------17-17-|
|-20b22------20b22----20b22-----20b22----20b22----20b22-------|
|-------------------------------------------------------------|
|-------------------------------------------------------------|
|-------------------------------------------------------------|
|-------------------------------------------------------------|


~~~~~~~
|--3--|
S S S S +E S S S S S S T +T S S S S


|-17--20-19-19-(19)-17h19p17-----------------------------------|
|----------------------------20-17-19--------------------------|
|-------------------------------------19pb20r(19)p17----17-19--|
|----------------------------------------------------19--------|
|--------------------------------------------------------------|
|--------------------------------------------------------------|


|--3--|
+S S S S +S S S S +S S S S T T T T S S S


|---------------------------------------------------------------------|
|------17-----------------17------------17-------17----------17-18-17-|
|-(19)----17b17.5-19-(19)----17-19-(19)----17-19----19p17-19----------|
|---------------------------------------------------------------------|
|---------------------------------------------------------------------|
|---------------------------------------------------------------------|


~~~~~~~~
T T T T T T T T E E S S E +E E


|----------------------------------------------------|
|----------------------------------------------------|
|-19--17-19-17---------------------------------------|
|--------------19-17---------------17--19-19-(19)s6/-|
|--------------------19-17-15\\-/19-------------------|
|----------------------------------------------------|


~~~~~~~~~ ~~
e e e e e e e E +E E E E E S S S E.


|-----17-17-17-17--17-19-19-|-(19)-20-20-20---18-20-22-22b24|
|---------------------------|-----------------------------------|
|-(0)-----------------------|-----------------------------------|
|-(0)-----------------------|-----------------------------------|
|---------------------------|-----------------------------------|
|---------------------------|-----------------------------------|


TP TP TP TP
+E Q +E +Q +Q +Q. +E +E Q E


|-(22)r-22b24(22)-(22)---(22)r|(22)b24(22)-(22)r-20\\-----|
|-----------------------------------|-------------------------------0-|
|-----------------------------------|---------------------------------|
|-----------------------------------|---------------------------------|
|-----------------------------------|---------------------------------|
|-----------------------------------|---------------------------------|


~~~~~~
+E E +E +S S S S S S S S E


|----------------------17-----19-------------------|
|-(0)-20b22(20)r(20)--------------17----17-------|
|--------------------------0-----19----19----19b21-|
|--------------------------------------------------|
|--------------------------------------------------|
|--------------------------------------------------|


~~


|--3--| |--3--|

E S S S e T T S T T E S S S S T T T T


|--------------------------------------------------------------|
|-----17-------------------------------------13----------------|
|-19-----19p17-19-19-17----17----------12-14----12-14-12-14-12-|
|-----------------------19----19-17\\---------------------------|
|--------------------------------------------------------------|
|--------------------------------------------------------------|


TP


|-----------9:8-----------| |--3--|

T T T T T T T T T S S S T T T T Q Q


|-------13-12----------------------------------------xSxS|
|-12-12------------13-12-----------------------------xSxS|
|-12----------12------------------12-12----12-12-12--xSxS|
|------------------------12-12-12-------12----------------------|
|---------------------------------------------------------------|
|---------------------------------------------------------------|


TP ~~~
H Q E E +S S S S E S S S S S S +S S E


|--xSx--------|-----17-------17-------17-17-------17-------17-(17)-17-17-|
|--xSx--------|--------20b22----20b22-------20b22----20b22---------------|
|--xSx--------|----------------------------------------------------------|
|---------------------|----------------------------------------------------------|
|---------------------|----------------------------------------------------------|
|-----------------0-0-|-(0)------------------------------------------------------|


~~~~~~ ~~ ~~~~~~~
+S S S S E S S S S E +E S S


|-(17)-17-19-19-19-19-19-17-19-19-(19)---20---|
|---------------------------------------------|
|---------------------------------------------|
|---------------------------------------------|
|---------------------------------------------|
|---------------------------------------------|
|--3--| |--3--| |------6-------|

S S T T T T T T T T T T T T T T T T T T S S S S S S S S


|-17-----------------------------------------------------------------------------------|
|----18-17-------------17-18p17--------------------------------------------------------|
|----------19-17----17----------19-17----17-----------------17-------------------------|
|----------------19-------------------19----19p17-----17-------------------------------|
|-------------------------------------------------19-----19----17-19-20-19-17----17-19-|
|-----------------------------------------------------------------------------20-------|
|-------6-------|

S S S S S S E +E +H


|--------------------------------------------|
|--------------------------------------------|
|--------------------19b24(19)-(19)r-------|
|--------------------------------------------|
|-20--19-17----17-19-------------------------|
|-----------20-------------------------------|


~~~
E S S S S S S S S S S S S E


|---------12--------------------------------|
|---13-15----13-----------------------------|
|---------------14-12-----------------------|
|---------------------14--13-12s10----10-12-|
|----------------------------------12-------|
|-------------------------------------------|


~~~~~~ TP
|--3--| |3-|
+E S S S S a S S S S S S E Q E S S +S S E S E. E E


|-----------------------------------------------|--------------------------------|
|-----------------------------------------------|--------------------------------|
|------------14-12------------------------------|-----------------7--9\\-----14---|
|-(12)-12h14-------13p12s10-12-10-12-10---------|-7-7-9-(9)-9-10-----------------|
|---------------------------------------10sx/---|--------------------------------|
|-----------------------------------------------|--------------------------------|


TP TP TP
+Q Q E. S +E E +E E +S E. q E E


|-------------------------22b24|(22)r-22b24(22)r-22b24---22b24---24b26-24b27|
|--------------------------------|-------------------------------------------------|
|-(14)---16---17-----------------|-------------------------------------------------|
|--------------------------------|-------------------------------------------------|
|--------------------------------|-------------------------------------------------|
|-------------------0-(0)--------|-------------------------------------------------|


+Q Q S S S S E S S


|-(24)r\\-------15-13-12-13-12tr13----12-|
|---------------------------------------|
|---------------------------------14----|
|---------------------------------------|
|---------------------------------------|
|---------------------------------------|


~~~~~~~~~


|--3--| |------6-------|

S S S S S S S S S S S E a E E E +E E E E E E E E


|--------------------------------------------------|-------------------0----12-|
|-15-13-12h13p12-13p12-----------------------------|------12-12-13-13----------|
|----------------------12--------------------14-14-|-(14)----------------14----|
|-------------------------14p12s10-12--12s14-------|---------------------------|
|--------------------------------------------------|---------------------------|
|--------------------------------------------------|---------------------------|


~~~~ ~~~~~~~~~
+H +E E E E +Q. E +E E S S E


|-(12)-------(12)----12----|----------------------------------|
|-----------------------15-|-(15)-----13-(13)-12-13p12--------|
|-----------------14-------|---------------------------14b16|
|--------------------------|----------------------------------|
|--------------------------|----------------------------------|
|--------------------------|----------------------------------|


~~~~~~~ ~~


|---3---|

+E E E E +Q Q S S S S S S S S S S E E e E


|---------------------------|------------------------------12--------------|
|---------------------------|--------12-13-12-15-13-12--------13-----------|
|-(14)-14-14-14-(14)---14---|-12--14-------------------14----------12---14-|
|---------------------------|----------------------------------------------|
|---------------------------|----------------------------------------------|
|---------------------------|----------------------------------------------|


~~~~~~~~~~~~~ ~~~~~
H +E e E E +H H


|-12-------(12)----15-12-|-(12)\\-------------------||
|---------------15-------|-------------------------||
|------------------------|-------------------------||
|------------------------|-------------------------||
|------------------------|-------------------------||
|------------------------|-------------------------||

|
| |-3-|
| E E E E +E E E E +E E E E E S S S E E


|------------------------|-------------------------||
|--------0--(0)----------|-------2-----------------||
|------4---------4-------|---------4-------------0-||
|----4--------------4----|-----------4-7-5h7p5s4-0-||
|--2-------------------0-|--(0)--------------------||
|------------------------|-------------------------||


Out-Chorus
w/Rhy Fig 1 x4
~~~
E E S S S S S a E. a S S E


|-------------------------------------------|
|-------13-13-13-13-------------------------|
|-------12-12-12-12-14--12h14----16p14p12---|
|-------------------------------------------|
|---(0)-------------------------------------|
|-------------------------------------------|


~~~~~~~~
Q S S S S S E. E e


|-------12-12-12-12---------------------|
|-------13-13-13-13-15----------13b13.5-|
|----------------------14----14---------|
|---------------------------------------|
|---------------------------------------|
|---------------------------------------|


~~~~~~
Q E E +E e e e e e e e S S S S S E.


|--------------------12-15-12-|----------------12--------------------|
|-------15b17(15)r----------|-15b16-15-13-15-----13-13-13-15-------|
|-----------------------------|--------------------------------14----|
|-----------------------------|--------------------------------------|
|-----------------------------|--------------------------------------|
|-----------------------------|--------------------------------------|


~~~~~~ ~~~
+E E S S S S S E. E e


|-------------------------------------|
|--------13-13-13-13-15-----------13--|
|-(14)---12-12-12-12-----14----14-----|
|-------------------------------------|
|-------------------------------------|
|-------------------------------------|


~~~~~~~~
Q S S S S S E. E e Q S S S S S S S S E E


|-------12-12-12-12---------------------|-----------12-------12-------12-------12-12--------|
|-------13-13-13-13-15----------13b13.5-|-----15b17----15b17----15b17----15b17-------15b17|
|----------------------14----14---------|---------------------------------------------------|
|---------------------------------------|---------------------------------------------------|
|---------------------------------------|---------------------------------------------------|
|---------------------------------------|---------------------------------------------------|


+E e e e S S S S S S S S


|----------------12--------12---------------|
|-(15)r-15-13-15-----13-15----13-------13---|
|--------------------------------14-12------|
|-------------------------------------------|
|-------------------------------------------|
|-------------------------------------------|


~~


|-----6------| |-----6------|

Q S S S S S S S S S S S S S S S S


|------------------------------------------------|
|------------------------------------------------|
|-14---------------------------------------------|
|------------------------------------------------|
|------17-0-15-0-15p0-17p0-15p0-17p15p0-17p15p0-|
|------------------------------------------------|


~~


|------6------| |-----6------| |-3--|

S S S S S S S S S S S S S S S E S S E


|------------------------------------------------------|
|------------------------------------------------------|
|--------------------------------------------12-14-14--|
|------------------------------------------------------|
|-17p15p0-17p15p0-17p15p0-17p15p0-17p15p0-0-----------|
|-----------------------------------0------0-----------|


~~~~~~~~~~~~~~ ~~~~~~~ ~~~~~~
+H +E E E a E +E E S S E +E a S S S E.


|-----------------------------|-----------------------------------------|
|--------------------12-12h13-|-(13)p12-13p12---------------------------|
|-(14)-------(14)-14----------|---------------14-(14)-------------------|
|-----------------------------|-----------------------13p12s10-12s14----|
|-----------------------------|-----------------------------------------|
|-----------------------------|-----------------------------------------|


~~~~~~
+E E E E E Q E E. S +E E +S E. Q


|---------------------------|--5-------7------(7)---8------(8)--10------12--------|
|---------------------------|--8b10---10b12(10)r-11b13(11)r-13b15---15b17-----|
|---------------------------|-----------------------------------------------------|
|-(14)-10-12----10--------0-|-----------------------------------------------------|
|------------10-----12\\-----|-----------------------------------------------------|
|---------------------------|-----------------------------------------------------|


E S S S S S S S S S S S S S S


|-------17-------17--------17-------17----17-17-|
|---/17----15s17----15s17-----15s17----17-------|
|-----------------------------------------------|
|-----------------------------------------------|
|-----------------------------------------------|
|-----------------------------------------------|


S S S S S S S S T T T T T T T T Q


|-17--19-19-19-19-20-17-17-----17-----------------------------||
|--------------------------20-----20p17-----------------------||
|---------------------------------------17----17----19b21||
|------------------------------------------19----19-----------||
|-------------------------------------------------------------||
|-------------------------------------------------------------||


Freely
~~~~~~~~~~~~~~~~~~~~~~~~~~~~~~
|--3--|
+E S S E E E S S S S S S S S


|---------------------------------------------:
|---------------------------------------------:
|-(19)-19-19-19-19-19-19-19-19-19-19-19r19-19-:
|---------------------------------------------:
|---------------------------------------------:
|---------------------------------------------:


~~


|-----5-----|

S S E S S S S S S S E S S S S H H


|-----------------------------------------------------:------------|
|-----------------------------------------------------:------------|
|-19p17-19-19p17----19-17---------------------17b17.5-:------------|
|----------------19-------19-17---------17-19---------:-19---------|
|-------------------------------16\\-/19---------------:------------|
|-----------------------------------------------------:------------|

Chords List

Chord: America - Santana - tab, song lyric, sheet, guitar, ukulele
Maybe you like