Hợp âm - tab: White Butterfly - InMe - cảm âm - lời bài hát

Cảm âm, tablature, hợp âm, tabs guitar, ukulele, lời bài hát: White Butterfly - InMe - ( White Butterfly - InMe Tabbed by: Tom Email: t_van_kl...)

--

-----------------------------------------------------------------

White Butterfly - InMe


-----------------------------------------------------------------

Tabbed by: Tom
Email: t_van_kleek@hotmail.com

Note: There's a little spanish guitar type thing over the chorus and break
but i can't work it out! Any help appreciated!

Tuning:EADgbe

Gtr. 1 Acoustic
Gtr. 2 Electric clean with heavy flanger
Gtr. 3 Electric slight distortion

Intro

Gtr. 1

[G] [F#]

e|----------------------------------------------------------------|
B|----------------------------------------------0-----0-----------|
G|------------------------------------------------0-----0---------|
D|---------0--------0------0-------------0----------0-----0-------|
A|----0--------0-------0------0------2------2---------------------|
E|-3----3---------3------3------3--2---2------2-------------------|


Gtr. 1 cont.

[F] [Em]

e|----------------------------------------------------------------|
B|-----------------------------------------0-----0----------------|
G|-------------------------------------------0-----0--------------|
D|--------0-------0-----0------------2---------2-----2------------|
A|---0--------0-----0-----0------2-----2--------------------------|
E|-1---1--------1-----1-----1--0---0-----0------------------------|


Gtr. 1

[G] [F#]

e|----------------------------------------------------------------|
B|---------------------------------------------0-----0------------|
G|-----------------------------------------------0-----0----------|
D|---------0--------0------0------------0----------0-----0--------|
A|----0--------0-------0------0------2-----2----------------------|
E|-3----3---------3------3------3--2---2-----2--------------------|

| |
| |
|Gtr. 2 |
| |
| L.R |


e|-----00---------------------------------------------------------|
B|-----00---------------------------------------------------------|
G|-----44---------------------------------------------------------|
D|-----55---------------------------------------------------------|
A|-5---55---------------------------------------------------------|
E|-3---33---------------------------------------------------------|



Gtr. 1 cont.

[F] [Em]

e|----------------------------------------------------------------|
B|---------------------------------------0-----0------------------|
G|-----------------------------------------0-----0----------------|
D|--------0-----0-----0------------2---------2-----2--------------|
A|---0------0-----0-----0------2-----2----------------------------|
E|-1---1------1-----1-----1--0---0-----0--------------------------|

| |
| |
|Gtr. 2 cont. |
| |
| L.R |


e|-----00---------------------------------------------------------|
B|-----00---------------------------------------------------------|
G|-----22---------------------------------------------------------|
D|-----33---------------------------------------------------------|
A|-3---33---------------------------------------------------------|
E|-1---11---------------------------------------------------------|



Verse

"paint a perfect..."

Gtr.1

[G] [F#] [F] [Emaj]

e|------------------------------------------------000--0-000------|
B|------------------------------------------------000--0-000------|
G|---4444-44444-----3333-33333-----2222-22222-----111--1-111------|
D|---5555-55555-----4444-44444-----3333-33333-----222--2-222------|
A|---5555-55555-----4444-44444-----3333-33333-----222--2-222------|
E|-3-3333-33333---2-2222-22222---1-1111-11111---0-000--0-000------|

| |
| |
|Gtr. 2 |
| |
| L.R L.R |


e|----00----------------------------00----------------------------|
B|----00----------------------------00----------------------------|
G|----44----------------------------22----------------------------|
D|----55----------------------------33----------------------------|
A|-5--55-------------------------3--33----------------------------|
E|-3--33-------------------------1--11----------------------------|


"...asleep..."

Gtr. 1 cont.

[G] [F#] [F] [Emaj]

e|------------------------------------------------0000-x---000----|
B|------------------------------------------------0000-x---000----|
G|---4444-44444-----3333-33333-----2222-22222-----1111-x---111----|
D|---5555-55555-----4444-44444-----3333-33333-----2222-x---222----|
A|---5555-55555-----4444-44444-----3333-33333-----2222-x---222----|
E|-3-3333-33333---2-2222-22222---1-1111-11111---0-0000-x---000----|

| |
| |
|Gtr. 2 cont. |
| |
| L.R L.R |


e|----00----------------------------00----------------------------|
B|----00----------------------------00----------------------------|
G|----44----------------------------22----------------------------|
D|----55----------------------------33----------------------------|
A|-5--55-------------------------3--33----------------------------|
E|-3--33-------------------------1--11----------------------------|



Pre-Chorus

"I can't take that..."

Gtr. 1

[B] [D5] [Fmaj7]

e|----------------------------------------------------------------|
B|---------------3-333-33-333--1-111-11-111--1-111-11-111---------|
G|-4-444-44-444--2-222-22-222--2-222-22-222--2-222-22-222---------|
D|-4-444-44-444--0-000-00-000--3-333-33-333--3-333-33-333---------|
A|-2-222-22-222----------------3-333-33-333--3-333-33-333---------|
E|----------------------------------------------------------------|

| |
| |
|Gtr. 2 |
| |
| L.R |


e|-00-------------------------------------------------------------|
B|-00-------------------------------------------------------------|
G|-88-------------------------------------------------------------|
D|-99-------------------------------------------------------------|
A|-99-------------------------------------------------------------|
E|-77-------------------------------------------------------------|


"...drained now..."

Gtr. 1 cont.
B D5 Fmaj7 sweep


e|----------------------------------------------------------------|
B|---------------3-333-33-333--1-111-11-111-11------1-------------|
G|-4-444-44-444--2-222-22-222--2-222-22-222-22-----2--------------|
D|-4-444-44-444--0-000-00-000--3-333-33-333-33----3---------------|
A|-2-222-22-222----------------3-333-33-333-33---3----------------|
E|----------------------------------------------------------------|


Played over top of chords in pre-chorus (can't work it all out though)

Gtr. 3

[B] [D5]

e|-12--11--12-12/14--12-11----11---12--10--12--12/14-12----10-----|
B|-------------------------12---------------------------12----12--|
G|----------------------------------------------------------------|
D|----------------------------------------------------------------|
A|----------------------------------------------------------------|
E|----------------------------------------------------------------|



[Fmaj7]

e|-12-10-12--b(14)--10----10--12-10--12--b(14)--10----10----------|
B|---------------------12--------------------------12-------------|
G|----------------------------------------------------------------|
D|----------------------------------------------------------------|
A|----------------------------------------------------------------|
E|----------------------------------------------------------------|



Chorus
"it's too late..."

Gtr. 1

[Asus2] [Cadd9] [Fmaj7] [Cadd9] [B/G]

e|-0-000-00-000--3-333-33-333----------------3-333-33--333333----|
B|-0-000-00-000--3-333-33-333--1-111-11-111--3-333-33--333333----|
G|-2-222-22-222--0-000-00-000--2-222-22-222--0-000-00--000000----|
D|-2-222-22-222--2-222-22-222--3-333-33-333--2-222-22--000000----|
A|-0-000-00-000--3-333-33-333--3-333-33-333--3-333-33--222222----|
E|---------------------------------------------------------------|

| |
| |
|Gtr. 2 |
| |
| L.R L.R |


e|-00----------------------------------------0-0-----------------|
B|-00----------------------------------------0-0-----------------|
G|-66----------------------------------------9-9-----------------|
D|-77----------------------------------------1010----------------|
A|-77----------------------------------------1010----------------|
E|-55----------------------------------------8-8-----------------|


"...ashamed and i..."
Gtr. 1 cont.
( Tab from: http://www.guitartabs.cc/tabs/i/inme/white_butterfly_tab.html )
[Asus2] [Cadd9] [Fmaj7] [Cadd9] [B/G]

e|-0-000-00-000--3-333-33-333----------------3-x--3--------------|
B|-0-000-00-000--3-333-33-333--1-111-11-111--3-x--3--------------|
G|-2-222-22-222--0-000-00-000--2-222-22-222--0-x--0--------------|
D|-2-222-22-222--2-222-22-222--3-333-33-333--2-x--0--------------|
A|-0-000-00-000--3-333-33-333--3-333-33-333--3-x--2--------------|
E|---------------------------------------------------------------|

| |
| |
|Gtr. 2 cont. |
| |
| L.R L.R |


e|-00----------------------------------------0-0-----------------|
B|-00----------------------------------------0-0-----------------|
G|-66----------------------------------------9-9-----------------|
D|-77----------------------------------------1010----------------|
A|-77----------------------------------------1010----------------|
E|-55----------------------------------------8-8-----------------|


Verse 2

"Tired eyes are..."

Gtr.1

sweep G F# F Emaj


e|------------------------------------------------------000--0-000|
B|------------------------------------------------------000--0-000|
G|----4----4444-44444-----3333-33333-----2222-22222-----111--1-111|
D|---5-----5555-55555-----4444-44444-----3333-33333-----222--2-222|
A|--5------5555-55555-----4444-44444-----3333-33333-----222--2-222|
E|-3-----3-3333-33333---2-2222-22222---1-1111-11111---0-000--0-000|

| |
| |
|Gtr. 2 |
| |
| L.R L.R |


e|------00--------------------------------00----------------------|
B|------00--------------------------------00----------------------|
G|------44--------------------------------22----------------------|
D|------55--------------------------------33----------------------|
A|-5----55-----------------------------3--33----------------------|
E|-3----33-----------------------------1--11----------------------|


"...numb, saturate the..."

Gtr. 1 cont.

[G] [F#] [F] [Emaj]

e|------------------------------------------------0000-x---000----|
B|------------------------------------------------0000-x---000----|
G|---4444-44444-----3333-33333-----2222-22222-----1111-x---111----|
D|---5555-55555-----4444-44444-----3333-33333-----2222-x---222----|
A|---5555-55555-----4444-44444-----3333-33333-----2222-x---222----|
E|-3-3333-33333---2-2222-22222---1-1111-11111---0-0000-x---000----|

| |
| |
|Gtr. 2 cont. |
| |
| L.R L.R |


e|----00----------------------------00----------------------------|
B|----00----------------------------00----------------------------|
G|----44----------------------------22----------------------------|
D|----55----------------------------33----------------------------|
A|-5--55-------------------------3--33----------------------------|
E|-3--33-------------------------1--11----------------------------|


Pre-Chorus

"i can't take that..."

Gtr. 1

[B] [D5] [Fmaj7]

e|----------------------------------------------------------------|
B|---------------3-333-33-333--1-111-11-111--1-111-11-111---------|
G|-4-444-44-444--2-222-22-222--2-222-22-222--2-222-22-222---------|
D|-4-444-44-444--0-000-00-000--3-333-33-333--3-333-33-333---------|
A|-2-222-22-222----------------3-333-33-333--3-333-33-333---------|
E|----------------------------------------------------------------|


"...drained now..."

Gtr. 1 cont.
B D5 Fmaj7 sweep


e|----------------------------------------------------------------|
B|---------------3-333-33-333--1-111-11-111-11------1-------------|
G|-4-444-44-444--2-222-22-222--2-222-22-222-22-----2--------------|
D|-4-444-44-444--0-000-00-000--3-333-33-333-33----3---------------|
A|-2-222-22-222----------------3-333-33-333-33---3----------------|
E|----------------------------------------------------------------|


Played over top of chords in pre-chorus (can't work it all out though)

Gtr. 3

[B] [D5]

e|-12--11--12-12/14--12-11----11---12--10--12--12/14-12----10-----|
B|-------------------------12---------------------------12----12--|
G|----------------------------------------------------------------|
D|----------------------------------------------------------------|
A|----------------------------------------------------------------|
E|----------------------------------------------------------------|



[Fmaj7]

e|-12-10-12--b(14)--10----10--12-10--12--b(14)--10----10----------|
B|---------------------12--------------------------12-------------|
G|----------------------------------------------------------------|
D|----------------------------------------------------------------|
A|----------------------------------------------------------------|
E|----------------------------------------------------------------|


Break

"Talk about the aftertaste...."

Gtr. 1

[Asus2] [Cadd9] [Fmaj7] [Cadd9] [B/G]

e|-0-000-00-000--3-333-33-333----------------3-333-33--333333----|
B|-0-000-00-000--3-333-33-333--1-111-11-111--3-333-33--333333----|
G|-2-222-22-222--0-000-00-000--2-222-22-222--0-000-00--000000----|
D|-2-222-22-222--2-222-22-222--3-333-33-333--2-222-22--000000----|
A|-0-000-00-000--3-333-33-333--3-333-33-333--3-333-33--222222----|
E|---------------------------------------------------------------|

| |
| |
|Gtr. 2 |
| |
| L.R L.R |


e|-00----------------------------------------0-0-----------------|
B|-00----------------------------------------0-0-----------------|
G|-66----------------------------------------9-9-----------------|
D|-77----------------------------------------1010----------------|
A|-77----------------------------------------1010----------------|
E|-55----------------------------------------8-8-----------------|


"...lives we've shared..."

Gtr. 1 cont.

[Asus2] [Cadd9] [Fmaj7] [Cadd9] [B/G]

e|-0-000-00-000--3-333-33-333----------------3-x--3--------------|
B|-0-000-00-000--3-333-33-333--1-111-11-111--3-x--3--------------|
G|-2-222-22-222--0-000-00-000--2-222-22-222--0-x--0--------------|
D|-2-222-22-222--2-222-22-222--3-333-33-333--2-x--0--------------|
A|-0-000-00-000--3-333-33-333--3-333-33-333--3-x--2--------------|
E|---------------------------------------------------------------|



Chorus

"It's too late..."

Gtr. 1

[Asus2] [Cadd9] [Fmaj7] [Cadd9] [B/G]

e|-0-000-00-000--3-333-33-333----------------3-333-33--333333----|
B|-0-000-00-000--3-333-33-333--1-111-11-111--3-333-33--333333----|
G|-2-222-22-222--0-000-00-000--2-222-22-222--0-000-00--000000----|
D|-2-222-22-222--2-222-22-222--3-333-33-333--2-222-22--000000----|
A|-0-000-00-000--3-333-33-333--3-333-33-333--3-333-33--222222----|
E|---------------------------------------------------------------|

| |
| |
|Gtr. 2 |
| |
| L.R L.R |


e|-00----------------------------------------0-0-----------------|
B|-00----------------------------------------0-0-----------------|
G|-66----------------------------------------9-9-----------------|
D|-77----------------------------------------1010----------------|
A|-77----------------------------------------1010----------------|
E|-55----------------------------------------8-8-----------------|


"...ashamed and i..."

Gtr. 1

[Asus2] [Cadd9] [Fmaj7] [Cadd9] [B/G]

e|-0-000-00-000--3-333-33-333----------------3-333-33--333333----|
B|-0-000-00-000--3-333-33-333--1-111-11-111--3-333-33--333333----|
G|-2-222-22-222--0-000-00-000--2-222-22-222--0-000-00--000000----|
D|-2-222-22-222--2-222-22-222--3-333-33-333--2-222-22--000000----|
A|-0-000-00-000--3-333-33-333--3-333-33-333--3-333-33--222222----|
E|---------------------------------------------------------------|



Outro

"...aftertaste and talk...."

Gtr. 1

[Asus2] [Cadd9] [Fmaj7] [Cadd9] [B/G]

e|-0-000-00-000--3-333-33-333----------------3-333-33--333333----|
B|-0-000-00-000--3-333-33-333--1-111-11-111--3-333-33--333333----|
G|-2-222-22-222--0-000-00-000--2-222-22-222--0-000-00--000000----|
D|-2-222-22-222--2-222-22-222--3-333-33-333--2-222-22--000000----|
A|-0-000-00-000--3-333-33-333--3-333-33-333--3-333-33--222222----|
E|---------------------------------------------------------------|

| |
| |
|Gtr. 2 |
| |
| L.R L.R |


e|-00----------------------------------------0-0-----------------|
B|-00----------------------------------------0-0-----------------|
G|-66----------------------------------------9-9-----------------|
D|-77----------------------------------------1010----------------|
A|-77----------------------------------------1010----------------|
E|-55----------------------------------------8-8-----------------|


"...lives we've shared..."

Gtr. 1 cont.



Asus2 Cadd9 Fmaj7 sweep------------|
e|-0-000-00-000--3-333-33-333--------------------3-----3-----3---|
B|-0-000-00-000--3-333-33-333--1-111-11-111-----3-----3-----3----|
G|-2-222-22-222--0-000-00-000--2-222-22-222----0-----0-----0-----|
D|-2-222-22-222--2-222-22-222--3-333-33-333---2-----0-----2------|
A|-0-000-00-000--3-333-33-333--3-333-33-333--3-----2-----3-------|
E|---------------------------------------------------------------|


| / slide up e.g. from 1st to 5th
| \ slide down e.g. from 5th to 1st
| h hammer-on
| p pull-off
| ~ vibrato
| + harmonic
| B Bend
| x Mute note
| Sweep roll a downstroke on the strings
| L.R Let Ring

Danh sách hợp âm

Hợp âm: White Butterfly - InMe - cảm âm, tab guitar, ukulele - lời bài hát
Có thể bạn thích