Hợp âm - tab: The Dream Is Dead - Type O Negative - cảm âm - lời bài hát

Cảm âm, tablature, hợp âm, tabs guitar, ukulele, lời bài hát: The Dream Is Dead - Type O Negative - ( Type O Negative - The Dream Is Dead Submitted By: Anesth...)

--
Type O Negative - The Dream Is Dead
Submitted By: Anesthesia
EMail: iianesthesiall@aol.com
[Note: I do not guarantee the layers have been covered. I listen by ear and gradually
tab it as I go along. I double checked tuning to be sure that Drop B was covered, so
if you're having a drastic tone measurement, you've probably tuned wrong. I've covered,
what seems to be, the entire song. But, if you have any changes or layers that you may
have picked up on, don't hesistate to e-mail me.]
Intro
|---------------------------------------------||
|---------------------------------------------||
|---------------------------------------------||
|-----------9-8-7----x-x-------7-----7--------||
|--------------------x-x---5/9---5/9----------||
|-5---7--7-----------x-x----------------7-9^--||
Main
"Champagne glass of blood and wine.."
|-----------------------|-------------------------------||
|-----------------------|-------------------------------||
|-----------------------|-------------------------------||
|-9/-----7/----6/----7--|-------------------------------||
|-7/-----5/----4/----5--|-(7-7/)--(5-5/)--(4-4/)--(5-5)-||
|-----------------------|-------------------------------||
Chorus
"Another lonely Valentine's Day.." [Partial Strum]
|------------------------------------------||
|------------------------------------------||
|------------------------------------------||
|------------------------------------------||
|-4--4--4-4--4/6--6--6-6--6/9-9-9-9-9-9-9--||
|-2--2--2-2--2/4--4--4-4--4/7-7-7-7-7-7-7--||
Bridge
"Nobody will break your fall.." [Partial Strum]
|------------------------------------------------------|
|------------------------------------------------------|
|------------------------------------------------------|
|------------------------------------------------------|
|-5--5--5-5--5/7--7--7-7--7/9-9-9-9--------------------|
|-3--3--3-3--3/5--5--5-5--5/7-7-7-7---10-9-10-9-10--12-|
"All for none, yeah.."
|---------------------------------------------||
|---------------------------------------------||
|---------------------------------------------||
|---------------------------9-8-7-------------||
|-5--5--5-5--5/7--7--7-7----------9-8-7-------||
|-3--3--3-3--3/5--5--5-5----------------7-6-5-||
Solo
|------------------------------------------------|
|----20---------18-----15--15--------------------|
|-16------16-14------14--14---14-----12----12----|
|--------------------------------14-----14---14~-|
|------------------------------------------------|
|------------------------------------------------|
|--------------------------------------------------------||
|----20---------18-----15--15--------------------15--15^-||
|-16------16-14------14--14---14-----12----12------------||
|--------------------------------14-----14---------------||
|--------------------------------------------------------||
|--------------------------------------------------------||
Outro
"The dream is dead.."
|--------------------------------------------------------------------------------|
|-11h12-11-----11h12-11-----11h12-11--14-12-11h12h11-----11h12h11----11h12h11----|
|----------11-----------11---------------------------11-----------11----------11-|
|--------------------------------------------------------------------------------|
|--------------------------------------------------------------------------------|
|--------------------------------------------------------------------------------|
|--------------------------------------------------------------------------------||
|-18h19-18-----18h19-18-----18h19-18--21-19-18h19h18-----18h19h18----18h19h18----||
|----------19-----------19---------------------------19-----------19----------19-||
|--------------------------------------------------------------------------------||
|--------------------------------------------------------------------------------||
|--------------------------------------------------------------------------------||

Danh sách hợp âm

Hợp âm: The Dream Is Dead - Type O Negative - cảm âm, tab guitar, ukulele - lời bài hát
Có thể bạn thích