Hợp âm - tab: Suzanne - Creeper - cảm âm - lời bài hát

Cảm âm, tablature, hợp âm, tabs guitar, ukulele, lời bài hát: Suzanne - Creeper - ( Eb tuning (D# G# C# F# A# D#) [Intro] D#|-------------...)

--
Eb tuning (D# G# C# F# A# D#)

[Intro]


D#|---------------------------------------------------------------------------|
A#|---------------------------------------------------------------------------|
F#|-9-9-9------------9-9-9---------------------------5-5-5-7-7-7-7-7-9-x-x-x-x|
C#|-9-9-9-2-2-2-2-2--9-9-9-2-2-2-2-2-5-5-5-7-7-7-7-7-5-5-5-7-7-7-7-7-9-x-x-x-x|
G#|-7-7-7-2-2-2-2-2--7-7-7-2-2-2-2-2-5-5-5-7-7-7-7-7-3-3-3-5-5-5-5-5-7-x-x-x-x|
D#|-------0-0-0-0-0--------0-0-0-0-0-3-3-3-5-5-5-5-5--------------------------|
D#|---------------------------------------------------------------------------|
A#|---------------------------------------------------------------------------|
F#|---------------------------5-5-5-7-7-7-7-7-9-x-x-x-x-x-x-x-9---------------|
C#|-2-2-2-2-2-5-5-5-7-7-7-7-7-5-5-5-7-7-7-7-7-9-x-x-x-x-x-x-x-9---------------|
G#|-2-2-2-2-2-5-5-5-7-7-7-7-7-3-3-3-5-5-5-5-5-7-x-x-x-x-x-x-x-7---------------|
D#|-0-0-0-0-0-3-3-3-5-5-5-5-5-------------------------------------------------|


[Verse 1]
(Bass only here)

[Pre-Chorus]


D#|---------------------------------------------------------------------------|
A#|---------------------------------------------------------------------------|
F#|---------------------------------9-9-9-------------------------------------|
C#|-2-2-2-2-2-2-2-2-2-2-2-2-2-2-2-2-9-9-9-------------------------------------|
G#|-2-2-2-2-2-2-2-2-2-2-2-2-2-2-2-2-7-7-7-------------------------------------|
D#|-0-0-0-0-0-0-0-0-0-0-0-0-0-0-0-0-------------------------------------------|



[Chorus]


D#|-------------------------------------------------------------------------------|
A#|-------------------------------------------------------------------------------|
F#|-----------------7-7-7-7-7-7-7-7-9-9-9-9-10-10-12-10-9-7-7-7-7-5-5-5-5-5-5-5-5-|
C#|-5-5-5-5-5-5-5-5-7-7-7-7-7-7-7-7-9-9-9-9-x--x--x--x--x-x-x-x-x-x-x-x-x-x-x-x-x-|
G#|-5-5-5-5-5-5-5-5-5-5-5-5-5-5-5-5-7-7-7-7-8--8--10-8--7-5-5-5-5-3-3-3-3-3-3-3-3-|
D#|-3-3-3-3-3-3-3-3---------------------------------------------------------------|


[Post-Chorus]


D#|---------------------------|
A#|---------------------------|
F#|---------------------------|
C#|-2---------------2-2-------|
G#|-2---------------2-2-------|
D#|-0---------------0-0-------|


[Verse 2]


D#|---------------------------------------------------------------------------|
A#|---------------------------------------------------------------------------|
F#|-9-9-9------------9-9-9---------------------------5-5-5-7-7-7-7-7-9-x-x-x-x|
C#|-9-9-9-2-2-2-2-2--9-9-9-2-2-2-2-2-5-5-5-7-7-7-7-7-5-5-5-7-7-7-7-7-9-x-x-x-x|
G#|-7-7-7-2-2-2-2-2--7-7-7-2-2-2-2-2-5-5-5-7-7-7-7-7-3-3-3-5-5-5-5-5-7-x-x-x-x|
D#|-------0-0-0-0-0--------0-0-0-0-0-3-3-3-5-5-5-5-5--------------------------|
D#|-------------------------------------------|
A#|-------------------------------------------|
F#|---------------------------5-5-5-7-7-7-7-7-|
C#|-2-2-2-2-2-5-5-5-7-7-7-7-7-5-5-5-7-7-7-7-7-|
G#|-2-2-2-2-2-5-5-5-7-7-7-7-7-3-3-3-5-5-5-5-5-|
D#|-0-0-0-0-0-3-3-3-5-5-5-5-5-----------------|


[Pre-Chorus]


D#|---------------------------------------------------------------------------|
A#|---------------------------------------------------------------------------|
F#|---------------------------------9-9-9-------------------------------------|
C#|-2-2-2-2-2-2-2-2-2-2-2-2-2-2-2-2-9-9-9-------------------------------------|
G#|-2-2-2-2-2-2-2-2-2-2-2-2-2-2-2-2-7-7-7-------------------------------------|
D#|-0-0-0-0-0-0-0-0-0-0-0-0-0-0-0-0-------------------------------------------|



[Chorus]


D#|-------------------------------------------------------------------------------|
A#|-------------------------------------------------------------------------------|
F#|-----------------7-7-7-7-7-7-7-7-9-9-9-9-10-10-12-10-9-7-7-7-7-7-7-7-7-7-7-7-7-|
C#|-5-5-5-5-5-5-5-5-7-7-7-7-7-7-7-7-9-9-9-9-x--x--x--x--x-x-x-x-x-x-x-x-x-x-x-x-x-|
G#|-5-5-5-5-5-5-5-5-5-5-5-5-5-5-5-5-7-7-7-7-8--8--10-8--7-5-5-5-5-5-5-5-5-5-5-5-5-|
D#|-3-3-3-3-3-3-3-3---------------------------------------------------------------|
D#|-------------------------------------------------------------------------------|
A#|-------------------------------------------------------------------------------|
F#|-----------------7-7-7-7-7-7-7-7-9-9-9-9-10-10-12-10-9-7-7-7-7-5-5-5-5-4-4-4-4-|
C#|-5-5-5-5-5-5-5-5-7-7-7-7-7-7-7-7-9-9-9-9-x--x--x--x--x-x-x-x-x-x-x-x-x-x-x-x-x-|
G#|-5-5-5-5-5-5-5-5-5-5-5-5-5-5-5-5-7-7-7-7-8--8--10-8--7-5-5-5-5-3-3-3-3-2-2-2-2-|
D#|-3-3-3-3-3-3-3-3---------------------------------------------------------------|


D#|----|
A#|----|
F#|----|
C#|-2--|
G#|-2--|
D#|-0--|

[Bridge]


D#|------------------------------------------|
A#|------------------------------------------|
F#|------------------------------------------|
C#|------------------------------------------| (x2)
G#|------7--5-5-3/5-----------7--5-5-3/5-----|
D#|-0-------------------0-0------------------|
D#|-----------------------------------|
A#|-----------------------------------|
F#|-5-7-9-7-9-11-9-11-12-11-12-14-12--|
C#|-x-x-x-x-x-x--x-x--x--x--x--x--x---|
G#|-3-5-7-5-7-9--7-9--10-9--10-12-10--|
D#|-----------------------------------|


[Chorus]


D#|-------------------------------------------------------------------------------|
A#|-------------------------------------------------------------------------------|
F#|-----------------7-7-7-7-7-7-7-7-9-9-9-9-10-10-12-10-9-7-7-7-7-7-7-7-7-7-7-7-7-|
C#|-5-5-5-5-5-5-5-5-7-7-7-7-7-7-7-7-9-9-9-9-x--x--x--x--x-x-x-x-x-x-x-x-x-x-x-x-x-|
G#|-5-5-5-5-5-5-5-5-5-5-5-5-5-5-5-5-7-7-7-7-8--8--10-8--7-5-5-5-5-5-5-5-5-5-5-5-5-|
D#|-3-3-3-3-3-3-3-3---------------------------------------------------------------|
D#|-------------------------------------------------------------------------------|
B|-------------------------------------------------------------------------------|
F#|-----------------7-7-7-7-7-7-7-7-9-9-9-9-10-10-12-10-9-7-7-7-7-5-5-5-5-4-4-4-4-|
C#|-5-5-5-5-5-5-5-5-7-7-7-7-7-7-7-7-9-9-9-9-x--x--x--x--x-x-x-x-x-x-x-x-x-x-x-x-x-|
G#|-5-5-5-5-5-5-5-5-5-5-5-5-5-5-5-5-7-7-7-7-8--8--10-8--7-5-5-5-5-3-3-3-3-2-2-2-2-|
D#|-3-3-3-3-3-3-3-3---------------------------------------------------------------|


[Outro]


D#|---------------------------------------------------------------------------|
A#|---------------------------------------------------------------------------|
F#|-----------------------------------------------------------------9-9-9-----|
C#|-2-2-2-2-2-2-2-2-2-2-2-2-2-2-2-2-2-2-2-2-2-2-2-2-2-2-2-2-2-2-2-2-9-9-9-----|
G#|-2-2-2-2-2-2-2-2-2-2-2-2-2-2-2-2-2-2-2-2-2-2-2-2-2-2-2-2-2-2-2-2-7-7-7-----|
D#|-0-0-0-0-0-0-0-0-0-0-0-0-0-0-0-0-0-0-0-0-0-0-0-0-0-0-0-0-0-0-0-0-----------|

Danh sách hợp âm

Hợp âm: Suzanne - Creeper - cảm âm, tab guitar, ukulele - lời bài hát
Có thể bạn thích