Hợp âm - tab: Silently Screaming - Serial Joe - cảm âm - lời bài hát

Cảm âm, tablature, hợp âm, tabs guitar, ukulele, lời bài hát: Silently Screaming - Serial Joe - ( Serial Joe Tuning(Dadgbe) Intro [---------------------...)

2 years ago179 Serial Joe Serial Joe
--
Serial Joe
Tuning(Dadgbe)

Intro


[--------------------------------------------------------------------
[-----------------------------------------------------------
[----------7--6------------7--6-----------------------------
[--0--0----6--5----0--0----6--5----0--0--3----0--0--0--3----
[--0--0----5--4----0--0----5--4----0--0--3----0--0--0--3----
[--0--0------------0--0------------0--0--3----0--0--0--3----
pm[----] [----]


Verse


[------------------------------------------------
[------------------------------------------------
[------------------------------------------------
[--8----x--7--x--x--x--x--x--x--x----------------
[--8----x--7--x--x--x--x--x--x--x----------------
[--8----x--7--x--x--x--x--x--x--x----------------


Chorus


[-------------------------------------------------
[-----------------------------------------------------
[-------------------4--4--4---------------------------
[--0--0--0--0--0----4--4--4----5--5--5--5--5--5--5----
[--0--0--0--0--0----2--2--2----5--5--5--5--5--5--5----
[--0--0--0--0--0---------------5--5--5--5--5--5--5----

Danh sách hợp âm

Hợp âm: Silently Screaming - Serial Joe - cảm âm, tab guitar, ukulele - lời bài hát
Có thể bạn thích