Hợp âm - tab: Psychotic Reaction - Trouble - cảm âm - lời bài hát

Cảm âm, tablature, hợp âm, tabs guitar, ukulele, lời bài hát: Psychotic Reaction - Trouble - ( Band: Trouble Album: Trouble Song: Psychotic Reaction Co...)

2 years ago280 Trouble (1990) Trouble
--
Band: Trouble
Album: Trouble
Song: Psychotic Reaction

Copyright (c) (American Recordings) (1990)
Version 1.1 - (30/03/05)

Transcribed By: Steve
Email: stephen.elvidge1@ntlworld.com

. - palm mute / - slide up to
\ - slide down to ~ - vibrato
h - hammer on b - Bend
p - pull off Suffixes for bend
t - tap f - full bend h - half bend
ph - pinched harmonic q - quarter bend t - tap bend
- see comment ^ - Hold bend r release bend
x - Stuccatto ~ - vibrato bend
, - slight palm mute () - ghost note, sustained note
" - tremolo note - Trill

Tunning: Drop D dropped 1/2 step

Intro

~~~~~~~~~~~~~~~~~~~~~~~~~~~~~~ to feedback


E-------------------------------------------------------------------|
B-------------------------------------------------------------------|
G-------------------------------------------------------------------|
D-------------------------------------------------------------------|
A-5--------------------(5)---------------------(5)------------------|
E-------------------------------------------------------------------|


Guitar 1
[PM] PM PM [PM] PM PM


E[-----------------------------------------|
B[-----------------------------------------|
G[-----------------------------------------|
D[-----------------------------------------|
A[-12\-0-0-5-0-3/4-0-1-0-0-0-5-0-3/4-0-1-0-|
E[-12\-0-0-5-0-3/4-0-1-0-0-0-5-0-3/4-0-1-0-|

[
[Guitar 2


E[-----------------------------------------|
B[-----------------------------------------|
G[-----------------------------------------|
D[-----------------------------------------|
A[-12\-0-0-----------0-----------------0-0-|
E[-12\-0-0-----------0-----------------0-0-|


Guitar 1
[PM] PM PM [PM] PM PM


E[-------------------------------------|
B[-------------------------------------|
G[-------------------------------------|
D[-------------------------------------|
A[-0-0-5---3/4-0-1-0-0-0-5-0-3/4-0-1-0-|
E[-0-0-5-0-3/4-0-1-0-0-0-5-0-3/4-0-1-0-|

[
[Guitar 2


E[-------------------------------------|
B[-------------------------------------|
G[-------------------------------------|
D[-------------------------------------|
A[---------------------------------/12-|
E[---------------------------------/12-|


Main Riff
[PM] PM PM


E-----------------|
B-----------------|
G-----------------|
D-----------------|
A-0-0-5-0-3/4-0-1-|
E-0-0-5-0-3/4-0-1-| Rpt 2 X


[PM] PM PM ~~~~ PM PM


E--------------------------------|
B--------------------------------|
G--------------------------------|
D--------------------------------|
A-0-0-5-0-3/4-0-5-3--5---3/4-0-1-|
E-0-0-5-0-3/4-0------5-0-3/4-0-1-|


Rpt Main Riff 2 X

[PM] PM PM ~~~~ PM PM


E--------------------------------|
B--------------------------------|
G--------------------------------|
D--------------------------------|
A-0-0-5-0-3/4-0-5-3--5---3/4-0---|
E-0-0-5-0-3/4-0------5-0-3/4-0---|


Chorus



E------------------------------------------------|
B------------------------------------------------|
G------------------------------------------------|
D-5-/7-7\---5\4\3--/11-8--5-/7-7\---3/5\3/5------|
A-3-/5-5\---3\2\1\-/9--6--3-/5-5\---1/3\1/3-5-4--|
E-------------------------------------------5-4--|
E------------------------------------------------|
B------------------------------------------------|
G------------------------------------------------|
D-5-/7-7\---5\4\3--/11-8--5-/7-7\---3/5\3/5------|
A-3-/5-5\---3\2\1\-/9--6--3-/5-5\---1/3\1/3-5-4\-|
E-------------------------------------------5-4\-|


~~~~~


E---------------|
B---------------|
G---------------|
D---------------|
A-/5-3----------|
E------5p0-3----|


Rpt Verse
Rpt Chorus

Backing for guitar solo
~~~PM~~~PM~~~


E--------------------------|
B--------------------------|
G--------------------------|
D--------------------------|
A-0-----3----2----1-----7--|
E-0-3-4----0----0----3--7--|


~~~PM~~~PM~~~[-PM--]


E---------------------------|
B---------------------------|
G---------------------------|
D---------------------------|
A-0-----3----2----1--0-00-0-|
E-0-3-4----0----0----0-00-0-|


~~~PM~~~PM~~~


E--------------------------|
B--------------------------|
G--------------------------|
D-----------------------2--|
A-2-----5----4----3-----0--|
E-0-3-4----0----0----3-----|


~~~PM~~~


E----------------------------|
B----------------------------|
G----------------------------|
D----------------------------|
A-2-----3----2--/5-3---------|
E-0-3-4----0---------7-6-5-3-|


Rpt Chorus
To feedback


E-------------------------------------|
B-------------------------------------|
G-------------------------------------|
D-------------------------------------|
A-0--------------(0)------------------|
E-0--------------(0)------------------|


Rpt Intro, Verse and Chorus

Outro

[PM] PM PM


E-----------------|
B-----------------|
G-----------------|
D-----------------|
A-0-0-5-0-3/4-0-1-|
E-0-0-5-0-3/4-0-1-| Rpt till fade



END

Danh sách hợp âm

Hợp âm: Psychotic Reaction - Trouble - cảm âm, tab guitar, ukulele - lời bài hát
Có thể bạn thích