Chord/Tab song: Proud - Tegan and Sara

Chord,Tablature, lyric, sheet, guitar, ukulele song: Proud - Tegan and Sara - ( Tuning: Standard Capo on 5th fret Listen to the original ...)

--
Tuning: Standard
Capo on 5th fret
Listen to the original song for strumming. Lots of muting and fast strumming!

Intro and Verse
"Freedom and Blood I make my mark and fight for tomorrow"
[...]They said proud, I'm prout to be, I'm proud to be me."


e|--------------------|
B|--------------------|
G|--0-----0--0--------|
D|--9--0--7--9-0-0----|
A|--7--5--5--7-7-5----|
E|-----3-------5-3----|


The last 3 chords are played through really quickly every time.

Chorus
"They said tell me,
Oh you gotta tell me"


e|--------0-0-0---|
B|--------1-0-3---|
G|--------0-0-2---|
D|--9-----2-0-0---|
A|--7--5--3-2-x---|
E|-----3--0-3-x---|


Bridge 1
"And when you finally figure out..."


e|--0--0---|
B|--3--3---|
G|--0--2---|
D|--2--0---|
A|--3--x---|
E|--0--x---|


Bridge 2
"When I get up, I feel the rhythm in my fingers"


e|---------------|
B|---------------|
G|--0-----0------|
D|--9--0--7--0---|
A|--7--5--5--7---|
E|-----3-----5---|


The structure of the song is:
-Intro[x2]
-Verse[x6]
-Chorus[x2]
-Verse[x6]
-Chorus[x2]
-Bridge 1[x14]
-Bridge 2[x6]
-Verse[x4]

Chords List

Chord: Proud - Tegan and Sara - tab, song lyric, sheet, guitar, ukulele
Maybe you like