Chord/Tab song: Only Everyone Can Judge Me - Crywank

Chord,Tablature, lyric, sheet, guitar, ukulele song: Only Everyone Can Judge Me - Crywank - ( 1st part (Picky part): e|-----------| |-----------| |--...)

--
1st part (Picky part):


e|-----------| |-----------| |-----------| |-----------|
B|----8---8--| |----3---3--| |----3---3--| |----4---4--|
G|-----------| |-----------| |-----------| |-----------|
D|-----------| |-----------| |-----------| |-----------|
A|--7---7----| |--2---2----| |--0---0----| |--3---3----|
E|-----------| x4 |-----------| x4 |-----------| x4 |-----------| x4
e|--------------------|
B|----8----3----1-----|
G|--------------------|
D|--------------------|
A|--7----2----0----7--|
E|-----------------0--| x2

[d]
2nd part (Strummy part):


e|-----------------| |----------------------------------------------------------------------|
G|-----------------| |----------------------------------------------------------------------|
D|-----------------| |--7-777--7-777--9-999--9-999-10-101010-10-101010-11-111111-11-111111--|
A|--777-7\10-1010--| |--0-000--0-000--0-000--0-000--0--0-0-0--0--0-0-0--0--0-0-0--0--0-0-0--|
E|--000-0-----0-0--| x4 |----------------------------------------------------------------------|

[ddd] [u] [d] [u] [d] [udu] [d] [udu][d][udu][d][udu][d][u][d][u][d][u][d][u][d][u][d][u][d][u][d][u]

Chords List

Chord: Only Everyone Can Judge Me - Crywank - tab, song lyric, sheet, guitar, ukulele
Maybe you like