Hợp âm - tab: Offend in Every Way - The White Stripes - cảm âm - lời bài hát

Cảm âm, tablature, hợp âm, tabs guitar, ukulele, lời bài hát: Offend in Every Way - The White Stripes - ( "White Blood Cells" Tab For "Offend In Every Way" Transcr...)

--
"White Blood Cells"
Tab For "Offend In Every Way"
Transcribed by Kevin Gipe

Picked this up by ear - but sounds accurate...

(intro and ending)


E------------------------1----------------------1-|
B------------3-----------1-----------0----------3-|
G------------0-----------2---------0-0-0--0-2---2-|
D--0---------0-----------3-------0---0---3----0---|
A----3-1-0---2---0-1-3---3-3-1-3-----2------------|
E----------3-3-3-------1-1-----------3------------|

[G] [F] [G][Dm]


E--------------------------------------------------------------|
B-------------0-------------1-----------------------------3----|
G-2>3-2-0---0-0---------------0-------------3-------------0----|
D---------3---0-----------2-------------------2-----------0----|
A-------------2---0-1-2-3-------3-1-0-----3---------0-1---2----|
E-------------3-3---------------------3-1-------1-3-----3-3----|

[G] [C] [F][G]
Chords durring the verses are G, F, G, Dm, C, F, G

(middle bridges are similar to the intro but more direct - more rocky)



E--------------------------1----------------------1-|
B--------------3-----------1-----------0----------3-|
G--------------0-----------2---------0-0-0--0-2---2-|
D--0-----0-----0-----------3-------0---0---3----0---|
A----3-1---2---2---0-1-3---3-3-1-3-----2------------|
E------------3-3-3-------1-1-----------3------------|

[G] [F] [G][Dm]


E-------------------------------0-----------1----------------|
B-------------------0-----------1-----------1-----------3----|
G-2>3-3-2-0---0-2-0-0-----------0-----------2-----------0----|
D-----------3-------0-----------2-----0-----3-----------0----|
A-------------------2---0-1-2-3-3-3-1-------3-----0-1---2----|
E-------------------3-3-----------------3-1-1-1-3-----3-3----|

[G] [C] [F][G]

Danh sách hợp âm

Hợp âm: Offend in Every Way - The White Stripes - cảm âm, tab guitar, ukulele - lời bài hát
Có thể bạn thích