Hợp âm - tab: Never Be the Same - Socialburn - cảm âm - lời bài hát

Cảm âm, tablature, hợp âm, tabs guitar, ukulele, lời bài hát: Never Be the Same - Socialburn - ( This tab is CORRECT.. Approx. 86 bpm.. Key of E.. (INT...)

--
This tab is CORRECT..

Approx. 86 bpm..
Key of E..


(INTRO/VERSUS)
[F#m/E] [F#m/E] [F#m/E] [B]

E |----------------------------------------------------------------------||
B |----------------------------------------------------------------------||
G |----9-9-9-9-9-9-9----9-9-9-9-9-9-9----9-9-9-9-9-9-9-------------------||
D |----9-9-9-9-9-9-9----9-9-9-9-9-9-9----9-9-9-9-9-9-9--9-9-9-9-9-9-9-9--||
A |--9p7-7-7-7-7-7-7--9p7-7-7-7-7-7-7--9p7-7-7-7-7-7-7--9-9-9-9-9-9-9-9--||
E |-----------------------------------------------------7-7-7-7-7-7-7-7--||


(PRE-CHORUS)
[A(sus2)] [B] [A(sus2)] [B]

E |----------------------------------------------------------------------||
B |----------------------------------------------------------------------||
G |----------------------------------------------------------------------||
D |--7-7-7-7-7-7-7-7--9-9-9-9-9-9-9-9--7-7-7-7-7-7-7-7--9-9-9-9-9-9-9-9--||
A |--7-7-7-7-7-7-7-7--9-9-9-9-9-9-9-9--7-7-7-7-7-7-7-7--9-9-9-9-9-9-9-9--||
E |--5-5-5-5-5-5-5-5--7-7-7-7-7-7-7-7--5-5-5-5-5-5-5-5--7-7-7-7-7-7-7-7--||


(CHORUS)
[E] [B] [A(sus2)] [B]

E |----------------------------------------------------------------------||
B |----------------------------------------------------------------------||
G |--9-9-9-9-9-9-9-9-----------------------------------------------------||
D |--9-9-9-9-9-9-9-9--9-9-9-9-9-9-9-9--7-7-7-7-7-7-7-7--9-9-9-9-9-9-9-9--||
A |--7-7-7-7-7-7-7-7--9-9-9-9-9-9-9-9--7-7-7-7-7-7-7-7--9-9-9-9-9-9-9-9--||
E |-------------------7-7-7-7-7-7-7-7--5-5-5-5-5-5-5-5--7-7-7-7-7-7-7-7--||



(BREAK/END)
[C#m] [C#m]

E |-----------------------------------------||---------------------------||
B |-----------------------------------------||---------------------------||
G |----------------------------6-6-6-6-6-6--||--6------------------------||
D |----------------------------6-6-6-6-6-6--||--6------------------------||
A |--12/11--11/7--7/2--2/4--4--4-4-4-4-4-4--||--4---4/7--7--7/9--9--9/7--||
E |-----------------------------------------||---------------------------||

(Ending)

Danh sách hợp âm

Hợp âm: Never Be the Same - Socialburn - cảm âm, tab guitar, ukulele - lời bài hát
Có thể bạn thích