Hợp âm - tab: Misery - Creeper - cảm âm - lời bài hát

Cảm âm, tablature, hợp âm, tabs guitar, ukulele, lời bài hát: Misery - Creeper - ( [Intro] e|--------------------------------------0-----...)

--
[Intro]



e|--------------------------------------0-----0-----0-----0------|
B|-----1-------1-------1---------0--------1-----1-----1-----1----|
G|-------0-------0-------0---------0--------2-----2-----2--------| x2
D|---2-------0-------2---------0---------------------------------|
A|-0-------2-------3-------2~3--------3--------------------------|
E|----------------------------------1----------------------------|


[Verse 1]

[Am]Pretty, but he don't tell you about it.
[F]Winter scarves and skirts of velvet.
[C]We still drink just like we did in [G]school.



e|--3-1-0---|


[Verse 2]

[Am]I passed your old house down by the cemetery.
[F]Club nights and university.
[C]When your friends sing 'Born To Run' ba[G]by, resist 'cause we were 'Born To Drift'.

[Chorus]

[C]If you could see the wreck I am these day[F]s,
You'd have new reasons to stay aw[Am]ay.

Just hold my hand for a little while.
Misery [G]never goes out of style.



e|--------------------------------------0-----0-----0-----0------|
B|-----1-------1-------1---------0--------1-----1-----1-----1----|
G|-------0-------0-------0---------0--------2-----2-----2--------|
D|---2-------0-------2---------0---------------------------------|
A|-0-------2-------3-------2~3--------3--------------------------|
E|----------------------------------1----------------------------|


[Verse 3]

[Am]I see you sometimes in dreams I have,
[F]In your bra in the room you used to rent.
[C]Do you ever wish you could wake someone [G]else?



e|--3-1-0---|


[Verse 4]

[Am]So I wrote down a list of coroners,
[F]Their names, their office phone numbers.
[C]To pronounce dead the thing we [G]had.
[G]In tombs, ex-boyfriends bedrooms.

[Chorus] x2

[C]If you could see the wreck I am these day[F]s,
You'd have new reasons to stay aw[Am]ay.

Just hold my hand for a little while.
Misery [G]never goes out of style.

[Bridge]

I'm your [Dm]chipped nail [Am]paint.
I'm the [C]fabric of your [G]coat.
You are [Dm]all I [Am]fear.
You are [C]words I [Em]never [G]wrote.
I'm your [Dm]chipped nail [Am]paint.
I'm the [C]fabric of your [G]coat.
You are [Dm]all [Em]I f[Am]ear.
You are [C]words I [Em]never [G]wrote.
You are years ago.[C]

[Chorus]

[C]If you could see the wreck I am these day[F]s,
You'd have new reasons to stay aw[Am]ay.
Just hold my hand for a little [F]while.
Misery [G]never goes out of style.[C]
[C]If you could see the wreck I am these [F]days,
You'd have new reasons to stay aw[Am]ay.
Just hold my hand for a little [F]while.
Misery [G]never goes out of style.[C]

[Outro]



e|--------------------------------------0-----0-----0-----0------|
B|-----1-------1-------1---------0--------1-----1-----1-----1----|
G|-------0-------0-------0---------0--------2-----2-----2--------|
D|---2-------0-------2---------0---------------------------------|
A|-0-------2-------3-------2~3--------3--------------------------|
E|----------------------------------1----------------------------|

Danh sách hợp âm

Hợp âm: Misery - Creeper - cảm âm, tab guitar, ukulele - lời bài hát
Có thể bạn thích