Hợp âm - tab: Messenger - Wipers - cảm âm - lời bài hát

Cảm âm, tablature, hợp âm, tabs guitar, ukulele, lời bài hát: Messenger - Wipers - ( Messenger (Props go to John Sixkiller) Wipers Over The Ed...)

--
Messenger (Props go to John Sixkiller)
Wipers
Over The Edge

Riff A: 2x


E----------------------------------------------------------------------------
B----------------------------------------------------------------------------
G----------------------------------------------------------------------------
D--2---4--2-2---4--2-2---4--2-2---4--2-2--4--2-2---4--2-2---4--2-2---4--2-2--
A--2---4--2-2---4--2-2---4--2-2---4--2-2--4--2-2---4--2-2---4--2-2---4--2-2--
E--0---0--0-0---0--0-0---0--0-0---0--0-0--0--0-0---0--0-0---0--0-0---0--0-0--


Riff B:


E--------------------------------------------------------------------
B-----------------------------/-14--14-14---14--14-14--\-------------
G-----------------------------/-14--14-14---14--14-14--\----back to--
D--2---4--2-2---4--2----7-7---/-14--14-14---14--14-14--\-----riff-a--
A--2---4--2-2---4--2----7-7---/-12--12-12---12--12-12--\-------1x----
E--0---0--0-0---0--0----5-5------------------------------------------


Riff C:


E---------------
B---------------
G---------------
D--7--7----2-\--
A--7--7----2-\--
E--5--5----0-\--


Riff D:


E-----------------------------------------------------------------
B-----------------------------------------------------------------
G-----------------------------------------------------------------
D--7-7---9-9---7--7-7---7---2---4--2-2---4--2-2--4--2-2---4--2-2--
A--7-7---9-9---7--7-7---7---2---4--2-2---4--2-2--4--2-2---4--2-2--
E--5-5---7-7---5--5-5---5---0---0--0-0---0--0-0--0--0-0---0--0-0--


Riff A, 2x

[E]Messenger [A]always brings bad [E]news
Just a trick of fate or am [A]I the one you [E]abuse?
You've got me [A]all messed [E]up
[A]Riding through the [B]wind don't get [A]left [E]behind
So easy to say, but [A]oh I can't [E]complain
Watch this trick up his sleeve or am [A]I the one to [E]blame?
You've got me [A]all messed [E]up
[A]Riding through the [B]wind don't get [A]left [E]behind

Danh sách hợp âm

Hợp âm: Messenger - Wipers - cảm âm, tab guitar, ukulele - lời bài hát
Có thể bạn thích