Hợp âm - tab: Just a Game - The Muffs - cảm âm - lời bài hát

Cảm âm, tablature, hợp âm, tabs guitar, ukulele, lời bài hát: Just a Game - The Muffs - ( [Intro] [G] e|-----------------------------------------...)

--
[Intro]
[G]

e|---------------------------------------------------|
B|---------------------------------------------------|
G|--------------------0---------------------0-----0--|
D|---0-2-0-2-0----0-2---2-0----0-2-0-2-0------2-0----|
A|---------------------------------------------------|
E|-3------------3------------3------------3----------|


[Verse]
[G]Looking at you [C]with a [D]tear, uh [G]huh
[G]Just don't let it [C]get to [D]you, uh [G]huh

[Chorus]
[G]Playing on your [D]sympathy
[G]Now you're the bad guy, [C]can't you [D]see
[G]Don't you know it's [D]just a [G]game

[Verse]
[G]You fell for it, [C]give me a [D]break, uh [G]huh
[G]Taking all that [C]you can [D]give uh [G]huh

[Chorus]
[G]Playing up your [D]misery
[G]And you're the victim [C]can't you [D]see
[G]Don't you know it's [D]just a [G]game

[Solo]
[G]

e|-----------------------|---------------------------|
B|-----------------------|---------------------------|
G|-----------------------|---------------------------|
D|-----------------------|---------------------------|
A|---2-2-23-5-5-3-2-0----|---2-2-23-5-5-3-2-0--------|
E|-3------------------3--|-3------------------2-3----|


[Chorus]
[G]Playing on your [D]sympathy
[G]Yeah you're the bad guy, [C]can't you [D]see
[G]Don't you know it's [D]just a [G]game
[G]Don't you know it's [D]just a [G]game
[G]Don't you know it's [D]just a [G]game

Danh sách hợp âm

Hợp âm: Just a Game - The Muffs - cảm âm, tab guitar, ukulele - lời bài hát
Có thể bạn thích